  0
SECTION
  2
HEADER
  9
$ACADVER
  1
AC1009
  9
$INSBASE
 10
0
 20
0
 30
0
  9
$EXTMIN
 10
0
 20
0
  9
$EXTMAX
 10
84.100000000000009
 20
59.400000000000006
  9
$LIMMIN
 10
0
 20
0
  9
$LIMMAX
 10
84.100000000000009
 20
59.400000000000006
  9
$LTSCALE
 40
0.1
  0
ENDSEC
  0
SECTION
  2
TABLES
  0
TABLE
  2
LTYPE
 70
     9
  0
LTYPE
  2
CONTINUOUS
 70
    64
  3
実線
 72
    65
 73
     0
 40
0.0
  0
LTYPE
  2
DASHED1
 70
    64
  3
--  --  --  --  --  --  --  --  
 72
    65
 73
     2
 40
2.5
 49
1.25
 49
-1.25
  0
LTYPE
  2
DASHED2
 70
    64
  3
----    ----    ----    ----    
 72
    65
 73
     2
 40
5.0
 49
2.5
 49
-2.5
  0
LTYPE
  2
DASHED3
 70
    64
  3
------  ------  ------  ------  
 72
    65
 73
     2
 40
5.0
 49
3.75
 49
-1.25
  0
LTYPE
  2
CENTER1
 70
    64
  3
----- - ----- - ----- - ----- - 
 72
    65
 73
     4
 40
10.0
 49
6.25
 49
-1.25
 49
1.25
 49
-1.25
  0
LTYPE
  2
CENTER2
 70
    64
  3
----------  --  ----------  --  
 72
    65
 73
     4
 40
20.0
 49
12.5
 49
-2.5
 49
2.5
 49
-2.5
  0
LTYPE
  2
PHANTOM1
 70
    64
  3
--- - - --- - - --- - - --- - - 
 72
    65
 73
     6
 40
10.0
 49
3.25
 49
-1.25
 49
1.25
 49
-1.25
 49
1.25
 49
-1.25
  0
LTYPE
  2
PHANTOM2
 70
    64
  3
--------  -  -  --------  -  -  
 72
    65
 73
     6
 40
20.0
 49
10.0
 49
-2.5
 49
1.25
 49
-2.5
 49
1.25
 49
-2.5
  0
LTYPE
  2
DOT
 70
    64
  3
-   -   -   -   -   -   -   -   
 72
    65
 73
     2
 40
2.5
 49
0.625
 49
-1.875
  0
LTYPE
  2
DUMMY
 70
    64
  3
ダミー
 72
    65
 73
     0
 40
0.0
  0
LTYPE
  2
RAND1
 70
    64
  3
ランダム線1
 72
    65
 73
     4
 40
10.0
 49
1.0
 49
-2.0
 49
3.0
 49
-4.0
  0
LTYPE
  2
RAND2
 70
    64
  3
ランダム線2
 72
    65
 73
     4
 40
14.0
 49
2.0
 49
-3.0
 49
4.0
 49
-5.0
  0
LTYPE
  2
RAND3
 70
    64
  3
ランダム線3
 72
    65
 73
     4
 40
18.0
 49
3.0
 49
-4.0
 49
5.0
 49
-6.0
  0
LTYPE
  2
RAND4
 70
    64
  3
ランダム線4
 72
    65
 73
     4
 40
22.0
 49
4.0
 49
-5.0
 49
6.0
 49
-7.0
  0
LTYPE
  2
RAND5
 70
    64
  3
ランダム線5
 72
    65
 73
     4
 40
26.0
 49
5.0
 49
-6.0
 49
7.0
 49
-8.0
  0
LTYPE
  2
LONG1
 70
    64
  3
----------  --  ----------  --  
 72
    65
 73
     4
 40
40.0
 49
32.5
 49
-2.5
 49
2.5
 49
-2.5
  0
LTYPE
  2
LONG2
 70
    64
  3
--------  -  -  --------  -  -  
 72
    65
 73
     6
 40
40.0
 49
30.0
 49
-2.5
 49
1.25
 49
-2.5
 49
1.25
 49
-2.5
  0
LTYPE
  2
LONG3
 70
    64
  3
+++++++++++++++..+++++++++++++++
 72
    65
 73
     2
 40
40.0
 49
37.5
 49
-2.5
  0
LTYPE
  2
LONG4
 70
    64
  3
+++++++++++++++..+++++++++++++++
 72
    65
 73
     2
 40
80.0
 49
75.0
 49
-5.0
  0
LTYPE
  2
LONG5
 70
    64
  3
----------  --  ----------  --  
 72
    65
 73
     4
 40
60.0
 49
37.5
 49
-7.5
 49
7.5
 49
-7.5
  0
LTYPE
  2
dashed
 70
   64
  3
-------   -------------   ------
 72
   65
 73
    2
 40
7.5
 49
6
 49
-1.5
  0
LTYPE
  2
dashed_spaced
 70
   64
  3
----        --------        ----
 72
   65
 73
    2
 40
12
 49
6
 49
-6
  0
LTYPE
  2
long_dashed_dotted
 70
   64
  3
------------- --- --------------
 72
   65
 73
    4
 40
15.25
 49
12
 49
-1.5
 49
0.25
 49
-1.5
  0
LTYPE
  2
long_dashed_double-dotted
 70
   64
  3
----------- --- --- ------------
 72
   65
 73
    6
 40
17
 49
12
 49
-1.5
 49
0.25
 49
-1.5
 49
0.25
 49
-1.5
  0
LTYPE
  2
long_dashed_triplicate-dotted
 70
   64
  3
--------- --- --- --- ----------
 72
   65
 73
    8
 40
18.75
 49
12
 49
-1.5
 49
0.25
 49
-1.5
 49
0.25
 49
-1.5
 49
0.25
 49
-1.5
  0
LTYPE
  2
dotted
 70
   64
  3
   -       -       -       -    
 72
   65
 73
    2
 40
1.75
 49
0.25
 49
-1.5
  0
LTYPE
  2
chain
 70
   64
  3
-------------- -- --------------
 72
   65
 73
    4
 40
18.5
 49
12
 49
-1.5
 49
3.5
 49
-1.5
  0
LTYPE
  2
chain_double_dash
 70
   64
  3
------------ -- -- -------------
 72
   65
 73
    6
 40
23.5
 49
12
 49
-1.5
 49
3.5
 49
-1.5
 49
3.5
 49
-1.5
  0
LTYPE
  2
dashed_dotted
 70
   64
  3
-----------     -     ----------
 72
   65
 73
    4
 40
9.25
 49
6
 49
-1.5
 49
0.25
 49
-1.5
  0
LTYPE
  2
double-dashed_dotted
 70
   64
  3
------   -----------   -   -----
 72
   65
 73
    6
 40
16.75
 49
6
 49
-1.5
 49
6
 49
-1.5
 49
0.25
 49
-1.5
  0
LTYPE
  2
dashed_double-dotted
 70
   64
  3
---------    -    -    ---------
 72
   65
 73
    6
 40
11
 49
6
 49
-1.5
 49
0.25
 49
-1.5
 49
0.25
 49
-1.5
  0
LTYPE
  2
double-dashed_double-dotted
 70
   64
  3
-----   ---------   -   -   ----
 72
   65
 73
    8
 40
18.5
 49
6
 49
-1.5
 49
6
 49
-1.5
 49
0.25
 49
-1.5
 49
0.25
 49
-1.5
  0
LTYPE
  2
dashed_triplicate-dotted
 70
   64
  3
-------    -    -    -    ------
 72
   65
 73
    8
 40
12.75
 49
6
 49
-1.5
 49
0.25
 49
-1.5
 49
0.25
 49
-1.5
 49
0.25
 49
-1.5
  0
LTYPE
  2
double-dashed_triplicate-dotted
 70
   64
  3
-----  ---------  -  -  -  -----
 72
   65
 73
   10
 40
20.25
 49
6
 49
-1.5
 49
6
 49
-1.5
 49
0.25
 49
-1.5
 49
0.25
 49
-1.5
 49
0.25
 49
-1.5
  0
LTYPE
  2
undefined
 70
   64
  3
--------------------------------
 72
   65
 73
    0
 40
0
  0
LTYPE
  2
CENTER
 70
   64
  3
-------      ------      -------
 72
   65
 73
    4
 40
47.5
 49
22
 49
-8.5
 49
8.5
 49
-8.5
  0
LTYPE
  2
DASHDOT
 70
   64
  3
-------      ------      -------
 72
   65
 73
    4
 40
70
 49
31
 49
-13
 49
13
 49
-13
  0
LTYPE
  2
DASHED
 70
   64
  3
----        --------        ----
 72
   65
 73
    2
 40
25.719999999999999
 49
12.859999999999999
 49
-12.859999999999999
  0
LTYPE
  2
DOT_20
 70
   64
  3
-               -               
 72
   65
 73
    2
 40
10.01
 49
0.01
 49
-10
  0
LTYPE
  2
PHANTOM
 70
   64
  3
------    ----    ----    ------
 72
   65
 73
    6
 40
50.5
 49
18
 49
-6.5
 49
6.5
 49
-6.5
 49
6.5
 49
-6.5
  0
LTYPE
  2
_
 70
   64
  3
                                
 72
   65
 73
    0
 40
0
  0
LTYPE
  2
__23
 70
   64
  3
                                
 72
   65
 73
    0
 40
0
  0
LTYPE
  2
__24
 70
   64
  3
                                
 72
   65
 73
    0
 40
0
  0
LTYPE
  2
__25
 70
   64
  3
                                
 72
   65
 73
    0
 40
0
  0
LTYPE
  2
__26
 70
   64
  3
                                
 72
   65
 73
    0
 40
0
  0
LTYPE
  2
__27
 70
   64
  3
                                
 72
   65
 73
    0
 40
0
  0
LTYPE
  2
__28
 70
   64
  3
                                
 72
   65
 73
    0
 40
0
  0
LTYPE
  2
__29
 70
   64
  3
                                
 72
   65
 73
    0
 40
0
  0
LTYPE
  2
__30
 70
   64
  3
                                
 72
   65
 73
    0
 40
0
  0
LTYPE
  2
__31
 70
   64
  3
                                
 72
   65
 73
    0
 40
0
  0
LTYPE
  2
__32
 70
   64
  3
                                
 72
   65
 73
    0
 40
0
  0
ENDTAB
  0
TABLE
  2
STYLE
  5
3
100
AcDbSymbolTable
 70
     1
  0
STYLE
  5
10
100
AcDbSymbolTableRecord
100
AcDbTextStyleTableRecord
  2
STANDARD
 70
     0
 40
0.0
 41
1.0
 50
0.0
 71
     0
 42
0.2
  3
txt
  4
bigfont.shx
  0
STYLE
  5
26
100
AcDbSymbolTableRecord
100
AcDbTextStyleTableRecord
  2
TATEGAKI
 70
    68
 40
0.0
 41
1.0
 50
0.0
 71
     0
 42
1.0
  3
txt
  4
bigfont.shx
  0
ENDTAB
  0
TABLE
  2
LAYER
 70
    8
  0
LAYER
  2
_0-0_0
 70
   64
 62
    7
  6
CONTINUOUS
  0
LAYER
  2
_0-1_hojo
 70
   64
 62
    7
  6
CONTINUOUS
  0
LAYER
  2
_0-2_gaikei
 70
   64
 62
    7
  6
CONTINUOUS
  0
LAYER
  2
_0-3_zubanwaku
 70
   64
 62
    7
  6
CONTINUOUS
  0
LAYER
  2
_0-4_fuzoku
 70
   64
 62
    7
  6
CONTINUOUS
  0
LAYER
  2
_0-5_zubanmoji
 70
   64
 62
    7
  6
CONTINUOUS
  0
LAYER
  2
_0-6_sumpo
 70
   64
 62
    7
  6
CONTINUOUS
  0
LAYER
  2
ADD_LINE
 70
   64
 62
    7
  6
CONTINUOUS
  0
ENDTAB
  0
ENDSEC
  0
SECTION
  2
BLOCKS
  0
BLOCK
  2
-000-DimnDraft3D1
 70
   64
 10
0
 20
0
 30
0
  0
TEXT
  8
_0-6_sumpo
 62
    7
 10
47.688825000000001
 20
182.43677099999999
 40
3
 41
1.1085
 50
0
  1
45
  0
LINE
  8
_0-6_sumpo
  6
CONTINUOUS
 62
    4
 10
38.627887000000001
 20
170.375147
 11
38.627887000000001
 21
183.92114599999999
  0
LINE
  8
_0-6_sumpo
  6
CONTINUOUS
 62
    4
 10
61.127887000000001
 20
170.375147
 11
61.127887000000001
 21
183.92114599999999
  0
LINE
  8
_0-6_sumpo
  6
CONTINUOUS
 62
    4
 10
38.627887000000001
 20
181.92114599999999
 11
61.127887000000001
 21
181.92114599999999
  0
SOLID
  8
_0-6_sumpo
  6
CONTINUOUS
 62
    4
 10
38.627887000000001
 20
181.92114599999999
 11
41.627884000000002
 21
182.72499400000001
 12
41.627890000000001
 22
181.11729800000001
 13
38.627887000000001
 23
181.92114599999999
  0
SOLID
  8
_0-6_sumpo
  6
CONTINUOUS
 62
    4
 10
61.127887000000001
 20
181.92114599999999
 11
58.127890000000008
 21
181.11729800000001
 12
58.127883999999995
 22
182.72499400000001
 13
61.127887000000001
 23
181.92114599999999
  0
ENDBLK
  0
BLOCK
  2
-001-DimnDraft3D2
 70
   64
 10
0
 20
0
 30
0
  0
TEXT
  8
_0-6_sumpo
 62
    7
 10
100.356556
 20
182.43677099999999
 40
3
 41
1.0819000000000001
 50
0
  1
75
  0
LINE
  8
_0-6_sumpo
  6
CONTINUOUS
 62
    4
 10
83.725306000000003
 20
161.400147
 11
83.725306000000003
 21
183.92114599999999
  0
LINE
  8
_0-6_sumpo
  6
CONTINUOUS
 62
    4
 10
121.225306
 20
165.375147
 11
121.225306
 21
183.92114599999999
  0
LINE
  8
_0-6_sumpo
  6
CONTINUOUS
 62
    4
 10
83.725306000000003
 20
181.92114599999999
 11
121.225306
 21
181.92114599999999
  0
SOLID
  8
_0-6_sumpo
  6
CONTINUOUS
 62
    4
 10
83.725306000000003
 20
181.92114599999999
 11
86.725302999999997
 21
182.72499400000001
 12
86.725308999999996
 22
181.11729800000001
 13
83.725306000000003
 23
181.92114599999999
  0
SOLID
  8
_0-6_sumpo
  6
CONTINUOUS
 62
    4
 10
121.225306
 20
181.92114599999999
 11
118.225309
 21
181.11729800000001
 12
118.225303
 22
182.72499400000001
 13
121.225306
 23
181.92114599999999
  0
ENDBLK
  0
BLOCK
  2
-002-DimnDraft3D3
 70
   64
 10
0
 20
0
 30
0
  0
TEXT
  8
_0-6_sumpo
 62
    7
 10
23.699121999999999
 20
145.75639699999999
 40
3
 41
1.0819000000000001
 50
90
  1
70
  0
LINE
  8
_0-6_sumpo
  6
CONTINUOUS
 62
    4
 10
33.627887000000001
 20
165.375147
 11
22.214746999999999
 21
165.375147
  0
LINE
  8
_0-6_sumpo
  6
CONTINUOUS
 62
    4
 10
33.627887000000001
 20
130.375147
 11
22.214746999999999
 21
130.375147
  0
LINE
  8
_0-6_sumpo
  6
CONTINUOUS
 62
    4
 10
24.214746999999999
 20
165.375147
 11
24.214746999999999
 21
130.375147
  0
SOLID
  8
_0-6_sumpo
  6
CONTINUOUS
 62
    4
 10
24.214746999999999
 20
165.375147
 11
25.018595000000001
 21
162.37514999999999
 12
23.410899000000001
 22
162.37514400000001
 13
24.214746999999999
 23
165.375147
  0
SOLID
  8
_0-6_sumpo
  6
CONTINUOUS
 62
    4
 10
24.214746999999999
 20
130.375147
 11
23.410899000000001
 21
133.37514400000001
 12
25.018595000000001
 22
133.37514999999999
 13
24.214746999999999
 23
130.375147
  0
ENDBLK
  0
BLOCK
  2
-003-DimnDraft3D4
 70
   64
 10
0
 20
0
 30
0
  0
TEXT
  8
_0-6_sumpo
 62
    7
 10
17.699121999999999
 20
145.25639699999999
 40
3
 41
1.0819000000000001
 50
90
  1
72
  0
LINE
  8
_0-6_sumpo
  6
CONTINUOUS
 62
    4
 10
33.627887000000001
 20
165.375147
 11
16.214746999999999
 21
165.375147
  0
LINE
  8
_0-6_sumpo
  6
CONTINUOUS
 62
    4
 10
41.627887000000001
 20
129.375147
 11
16.214746999999999
 21
129.375147
  0
LINE
  8
_0-6_sumpo
  6
CONTINUOUS
 62
    4
 10
18.214746999999999
 20
165.375147
 11
18.214746999999999
 21
129.375147
  0
SOLID
  8
_0-6_sumpo
  6
CONTINUOUS
 62
    4
 10
18.214746999999999
 20
165.375147
 11
19.018595000000001
 21
162.37514999999999
 12
17.410899000000001
 22
162.37514400000001
 13
18.214746999999999
 23
165.375147
  0
SOLID
  8
_0-6_sumpo
  6
CONTINUOUS
 62
    4
 10
18.214746999999999
 20
129.375147
 11
17.410899000000001
 21
132.37514400000001
 12
19.018595000000001
 22
132.37514999999999
 13
18.214746999999999
 23
129.375147
  0
ENDBLK
  0
ENDSEC
  0
SECTION
  2
ENTITIES
  0
TEXT
  8
_0-0_0
 62
    7
 10
215.7863173296181
 20
78.871886993323244
 40
3
 41
0.843333333333333
 50
0
  1
環境基準　：　RoHS指令 [2011/65/EU + (EU)2015/863]
  0
LINE
  8
_0-0_0
  6
CONTINUOUS
 62
    7
 10
211.80834346436706
 20
77.871886993323244
 11
311.80834346436706
 21
77.871886993323244
  0
TEXT
  8
_0-5_zubanmoji
 62
    7
 10
315.2784708109279
 20
53.725640133064395
 40
4.5
 41
0.9315999999999999
 50
0
  1
mm
  0
TEXT
  8
_0-5_zubanmoji
 62
    7
 10
229.87226926916082
 20
36.389138450239948
 40
4
 41
1
 50
0
  1
TATSUTA ELECTRIC WIRE & CABLE CO., LTD. 
  0
LINE
  8
_0-0_0
  6
CONTINUOUS
 62
    7
 10
311.80834346436706
 20
207.87188699332319
 11
211.80834346436706
 21
207.87188699332319
  0
LINE
  8
_0-0_0
  6
CONTINUOUS
 62
    7
 10
311.80834346436706
 20
202.87188699332319
 11
211.80834346436706
 21
202.87188699332319
  0
LINE
  8
_0-0_0
  6
CONTINUOUS
 62
    7
 10
211.80834346436706
 20
197.87188699332319
 11
311.80834346436706
 21
197.87188699332319
  0
LINE
  8
_0-0_0
  6
CONTINUOUS
 62
    7
 10
211.80834346436706
 20
192.87188699332319
 11
311.80834346436706
 21
192.87188699332319
  0
LINE
  8
_0-0_0
  6
CONTINUOUS
 62
    7
 10
211.80834346436706
 20
187.87188699332319
 11
311.80834346436706
 21
187.87188699332319
  0
LINE
  8
_0-0_0
  6
CONTINUOUS
 62
    7
 10
211.80834346436706
 20
182.87188699332319
 11
311.80834346436706
 21
182.87188699332319
  0
LINE
  8
_0-0_0
  6
CONTINUOUS
 62
    7
 10
211.80834346436706
 20
177.87188699332319
 11
311.80834346436706
 21
177.87188699332319
  0
LINE
  8
_0-0_0
  6
CONTINUOUS
 62
    7
 10
211.80834346436706
 20
172.87188699332319
 11
311.80834346436706
 21
172.87188699332319
  0
LINE
  8
_0-0_0
  6
CONTINUOUS
 62
    7
 10
211.80834346436706
 20
167.87188699332319
 11
311.80834346436706
 21
167.87188699332319
  0
LINE
  8
_0-0_0
  6
CONTINUOUS
 62
    7
 10
211.80834346436706
 20
162.87188699332319
 11
311.80834346436706
 21
162.87188699332319
  0
LINE
  8
_0-0_0
  6
CONTINUOUS
 62
    7
 10
211.80834346436706
 20
152.87188699332316
 11
311.80834346436706
 21
152.87188699332316
  0
LINE
  8
_0-0_0
  6
CONTINUOUS
 62
    7
 10
211.80834346436706
 20
92.871886993323244
 11
311.80834346436706
 21
92.871886993323244
  0
LINE
  8
_0-0_0
  6
CONTINUOUS
 62
    7
 10
211.80834346436706
 20
97.871886993323244
 11
311.80834346436706
 21
97.871886993323244
  0
LINE
  8
_0-0_0
  6
CONTINUOUS
 62
    7
 10
211.80834346436706
 20
102.87188699332324
 11
311.80834346436706
 21
102.87188699332324
  0
LINE
  8
_0-0_0
  6
CONTINUOUS
 62
    7
 10
211.80834346436706
 20
107.87188699332324
 11
311.80834346436706
 21
107.87188699332324
  0
LINE
  8
_0-0_0
  6
CONTINUOUS
 62
    7
 10
211.80834346436706
 20
112.87188699332324
 11
311.80834346436706
 21
112.87188699332324
  0
LINE
  8
_0-0_0
  6
CONTINUOUS
 62
    7
 10
211.80834346436706
 20
117.87188699332324
 11
311.80834346436706
 21
117.87188699332324
  0
LINE
  8
_0-0_0
  6
CONTINUOUS
 62
    7
 10
211.80834346436706
 20
122.87188699332324
 11
311.80834346436706
 21
122.87188699332324
  0
LINE
  8
_0-0_0
  6
CONTINUOUS
 62
    7
 10
211.80834346436706
 20
127.87188699332324
 11
311.80834346436706
 21
127.87188699332324
  0
LINE
  8
_0-0_0
  6
CONTINUOUS
 62
    7
 10
211.80834346436706
 20
132.87188699332324
 11
311.80834346436706
 21
132.87188699332324
  0
LINE
  8
_0-0_0
  6
CONTINUOUS
 62
    7
 10
211.80834346436706
 20
142.87188699332316
 11
311.80834346436706
 21
142.87188699332316
  0
LINE
  8
_0-0_0
  6
CONTINUOUS
 62
    7
 10
211.80834346436706
 20
87.871886993323244
 11
311.80834346436706
 21
87.871886993323244
  0
LINE
  8
_0-0_0
  6
CONTINUOUS
 62
    7
 10
211.80834346436714
 20
137.87188699332324
 11
311.80834346436723
 21
137.87188699332324
  0
LINE
  8
_0-1_hojo
  6
CONTINUOUS
 62
    8
 10
39.800000000000004
 20
27.450000000000003
 11
39.800000000000004
 21
237.45000000000002
  0
LINE
  8
_0-1_hojo
  6
CONTINUOUS
 62
    8
 10
336.80000000000001
 20
237.45000000000002
 11
39.800000000000004
 21
237.45000000000002
  0
LINE
  8
_0-1_hojo
  6
CONTINUOUS
 62
    8
 10
336.80000000000001
 20
237.45000000000002
 11
336.80000000000001
 21
27.450000000000003
  0
LINE
  8
_0-1_hojo
  6
CONTINUOUS
 62
    8
 10
39.800000000000004
 20
27.450000000000003
 11
336.80000000000001
 21
27.450000000000003
  0
LINE
  8
_0-3_zubanwaku
  6
CONTINUOUS
 62
    7
 10
326.96079000000003
 20
70.096615
 11
326.96079000000003
 21
34.096615
  0
LINE
  8
_0-2_gaikei
  6
CONTINUOUS
 62
    7
 10
91.502886999999987
 20
140.148585
 11
91.502886999999987
 21
136.298585
  0
LINE
  8
_0-2_gaikei
  6
CONTINUOUS
 62
    7
 10
100.202887
 20
164.32514700000002
 11
96.552886999999998
 21
164.32514700000002
  0
LINE
  8
_0-4_fuzoku
  6
CONTINUOUS
 62
    3
 10
91.502886999999987
 20
186.72514699999999
 11
87.85288700000001
 21
186.72514699999999
  0
LINE
  8
_0-2_gaikei
  6
CONTINUOUS
 62
    7
 10
95.85288700000001
 20
157.82514700000002
 11
95.85288700000001
 21
164.32514700000002
  0
LINE
  8
_0-2_gaikei
  6
CONTINUOUS
 62
    7
 10
125.525306
 20
192.82514700000002
 11
161.025306
 21
192.82514700000002
  0
LINE
  8
_0-4_fuzoku
  6
CONTINUOUS
 62
    3
 10
85.177886999999998
 20
187.40014699999995
 11
85.47788700000001
 21
187.40014699999995
  0
LINE
  8
_0-1_hojo
  6
CONTINUOUS
 62
    7
 10
93.552886999999998
 20
103.24858500000001
 11
93.72788700000001
 21
103.24858500000001
  0
LINE
  8
_0-2_gaikei
  6
CONTINUOUS
 62
    7
 10
79.427886999999998
 20
184.32514700000002
 11
79.427886999999998
 21
166.32514700000002
  0
LINE
  8
_0-4_fuzoku
  6
CONTINUOUS
 62
    3
 10
100.202887
 20
163.92514700000001
 11
96.552886999999998
 21
163.92514700000001
  0
LINE
  8
_0-1_hojo
  6
CONTINUOUS
 62
    7
 10
85.72788700000001
 20
157.82514700000002
 11
85.72788700000001
 21
156.500147
  0
LINE
  8
_0-4_fuzoku
  6
CONTINUOUS
 62
    3
 10
100.202887
 20
160.07514700000002
 11
96.552886999999998
 21
160.07514700000002
  0
LINE
  8
_0-2_gaikei
  6
CONTINUOUS
 62
    7
 10
100.927887
 20
192.82514700000002
 11
78.427886999999998
 21
192.82514700000002
  0
LINE
  8
_0-4_fuzoku
  6
CONTINUOUS
 62
    3
 10
94.177886999999998
 20
161.85014699999999
 11
94.177886999999998
 21
160.75014699999997
  0
LINE
  8
_0-4_fuzoku
  6
CONTINUOUS
 62
    3
 10
98.22788700000001
 20
189.90014699999995
 11
98.527887000000007
 21
189.90014699999995
  0
LINE
  8
_0-4_fuzoku
  6
CONTINUOUS
 62
    3
 10
85.177886999999998
 20
138.148585
 11
85.47788700000001
 21
138.148585
  0
LINE
  8
_0-4_fuzoku
  6
CONTINUOUS
 62
    3
 10
98.527887000000007
 20
162.15014699999995
 11
99.870367999999999
 21
162.15014699999995
  0
LINE
  8
_0-4_fuzoku
  6
CONTINUOUS
 62
    3
 10
82.47788700000001
 20
137.648585
 11
82.47788700000001
 21
137.298585
  0
LINE
  8
_0-4_fuzoku
  6
CONTINUOUS
 62
    3
 10
96.885406000000003
 20
188.50014699999997
 11
98.22788700000001
 21
188.50014699999997
  0
LINE
  8
_0-4_fuzoku
  6
CONTINUOUS
 62
    3
 10
86.827887000000004
 20
137.648585
 11
86.827887000000004
 21
137.298585
  0
LINE
  8
_0-4_fuzoku
  6
CONTINUOUS
 62
    3
 10
96.877887000000001
 20
137.648585
 11
99.877887000000001
 21
137.648585
  0
LINE
  8
_0-2_gaikei
  6
CONTINUOUS
 62
    7
 10
78.427886999999998
 20
192.82514700000002
 11
78.427886999999998
 21
157.82514700000002
  0
LINE
  8
_0-4_fuzoku
  6
CONTINUOUS
 62
    3
 10
100.202887
 20
190.82514700000002
 11
96.552886999999998
 21
190.82514700000002
  0
LINE
  8
_0-4_fuzoku
  6
CONTINUOUS
 62
    3
 10
98.22788700000001
 20
160.75014699999997
 11
98.527887000000007
 21
160.75014699999997
  0
LINE
  8
_0-4_fuzoku
  6
CONTINUOUS
 62
    3
 10
80.827887000000004
 20
188.80014700000001
 11
80.827887000000004
 21
189.90014699999995
  0
LINE
  8
_0-2_gaikei
  6
CONTINUOUS
 62
    7
 10
78.427886999999998
 20
140.148585
 11
100.927887
 21
140.148585
  0
LINE
  8
_0-4_fuzoku
  6
CONTINUOUS
 62
    3
 10
81.127886999999987
 20
188.80014700000001
 11
82.470368000000008
 21
188.80014700000001
  0
LINE
  8
_0-2_gaikei
  6
CONTINUOUS
 62
    7
 10
79.152887000000007
 20
191.82514700000002
 11
82.802886999999998
 21
191.82514700000002
  0
LINE
  8
_0-2_gaikei
  6
CONTINUOUS
 62
    7
 10
100.627887
 20
173.77514699999995
 11
100.627887
 21
176.87514699999997
  0
LINE
  8
_0-4_fuzoku
  6
CONTINUOUS
 62
    3
 10
89.827887000000004
 20
161.85014699999999
 11
91.170367999999996
 21
161.85014699999999
  0
LINE
  8
_0-4_fuzoku
  6
CONTINUOUS
 62
    3
 10
79.47788700000001
 20
137.648585
 11
79.47788700000001
 21
137.298585
  0
LINE
  8
_0-2_gaikei
  6
CONTINUOUS
 62
    7
 10
82.802886999999998
 20
157.82514700000002
 11
82.802886999999998
 21
164.32514700000002
  0
LINE
  8
_0-2_gaikei
  6
CONTINUOUS
 62
    7
 10
139.62530599999999
 20
177.07514700000002
 11
139.62530599999999
 21
173.57514700000002
  0
LINE
  8
_0-4_fuzoku
  6
CONTINUOUS
 62
    3
 10
87.152887000000007
 20
190.57514700000002
 11
83.502886999999987
 21
190.57514700000002
  0
LINE
  8
_0-4_fuzoku
  6
CONTINUOUS
 62
    3
 10
85.177886999999998
 20
187.40014699999995
 11
85.177886999999998
 21
188.50014699999997
  0
LINE
  8
_0-4_fuzoku
  6
CONTINUOUS
 62
    3
 10
93.877887000000001
 20
138.148585
 11
94.177886999999998
 21
138.148585
  0
LINE
  8
_0-4_fuzoku
  6
CONTINUOUS
 62
    3
 10
94.177886999999998
 20
188.50014699999997
 11
95.520368000000005
 21
188.50014699999997
  0
LINE
  8
_0-2_gaikei
  6
CONTINUOUS
 62
    7
 10
86.552886999999998
 20
105.048585
 11
86.552886999999998
 21
103.99858500000001
  0
LINE
  8
_0-4_fuzoku
  6
CONTINUOUS
 62
    3
 10
85.47788700000001
 20
161.85014699999999
 11
86.820368000000002
 21
161.85014699999999
  0
LINE
  8
_0-2_gaikei
  6
CONTINUOUS
 62
    7
 10
96.552886999999998
 20
158.82514700000002
 11
100.202887
 21
158.82514700000002
  0
LINE
  8
_0-4_fuzoku
  6
CONTINUOUS
 62
    3
 10
83.502886999999987
 20
136.798585
 11
87.152887000000007
 21
136.798585
  0
LINE
  8
_0-4_fuzoku
  6
CONTINUOUS
 62
    3
 10
93.877887000000001
 20
187.40014699999995
 11
94.177886999999998
 21
187.40014699999995
  0
LINE
  8
_0-1_hojo
  6
CONTINUOUS
 62
    7
 10
86.772886999999997
 20
105.14858500000001
 11
86.772886999999997
 21
103.24858500000001
  0
LINE
  8
_0-2_gaikei
  6
CONTINUOUS
 62
    7
 10
158.025306
 20
184.07514700000002
 11
158.67530599999998
 21
184.07514700000002
  0
LINE
  8
_0-2_gaikei
  6
CONTINUOUS
 62
    7
 10
83.502886999999987
 20
158.82514700000002
 11
87.152887000000007
 21
158.82514700000002
  0
LINE
  8
_0-2_gaikei
  6
CONTINUOUS
 62
    7
 10
92.202887000000004
 20
136.298585
 11
95.85288700000001
 21
136.298585
  0
LINE
  8
_0-4_fuzoku
  6
CONTINUOUS
 62
    3
 10
96.885406000000003
 20
162.15014699999995
 11
98.22788700000001
 21
162.15014699999995
  0
LINE
  8
_0-4_fuzoku
  6
CONTINUOUS
 62
    3
 10
85.177886999999998
 20
163.25014699999997
 11
85.47788700000001
 21
163.25014699999997
  0
LINE
  8
_0-4_fuzoku
  6
CONTINUOUS
 62
    3
 10
81.127886999999987
 20
161.85014699999999
 11
81.127886999999987
 21
160.75014699999997
  0
LINE
  8
_0-2_gaikei
  6
CONTINUOUS
 62
    7
 10
86.427886999999998
 20
112.64858500000001
 11
92.927886999999998
 21
112.64858500000001
  0
LINE
  8
_0-4_fuzoku
  6
CONTINUOUS
 62
    3
 10
92.202887000000004
 20
137.298585
 11
95.85288700000001
 21
137.298585
  0
LINE
  8
_0-2_gaikei
  6
CONTINUOUS
 62
    7
 10
158.67530599999998
 20
184.07514700000002
 11
158.67530599999998
 21
183.57514700000002
  0
LINE
  8
_0-4_fuzoku
  6
CONTINUOUS
 62
    3
 10
85.177886999999998
 20
138.97011599999999
 11
85.177886999999998
 21
138.148585
  0
LINE
  8
_0-2_gaikei
  6
CONTINUOUS
 62
    7
 10
82.802886999999998
 20
192.82514700000002
 11
82.802886999999998
 21
186.32514700000002
  0
LINE
  8
_0-2_gaikei
  6
CONTINUOUS
 62
    7
 10
86.427886999999998
 20
114.64858500000001
 11
92.927886999999998
 21
114.64858500000001
  0
LINE
  8
_0-4_fuzoku
  6
CONTINUOUS
 62
    3
 10
88.185406
 20
161.85014699999999
 11
89.527887000000007
 21
161.85014699999999
  0
LINE
  8
_0-4_fuzoku
  6
CONTINUOUS
 62
    3
 10
94.177886999999998
 20
187.40014699999995
 11
94.177886999999998
 21
188.50014699999997
  0
LINE
  8
_0-4_fuzoku
  6
CONTINUOUS
 62
    3
 10
89.527887000000007
 20
163.25014699999997
 11
89.527887000000007
 21
162.15014699999995
  0
LINE
  8
_0-4_fuzoku
  6
CONTINUOUS
 62
    3
 10
85.47788700000001
 20
188.80014700000001
 11
86.820368000000002
 21
188.80014700000001
  0
LINE
  8
_0-2_gaikei
  6
CONTINUOUS
 62
    7
 10
96.552886999999998
 20
191.82514700000002
 11
100.202887
 21
191.82514700000002
  0
LINE
  8
_0-4_fuzoku
  6
CONTINUOUS
 62
    3
 10
85.177886999999998
 20
188.80014700000001
 11
85.177886999999998
 21
189.90014699999995
  0
LINE
  8
_0-4_fuzoku
  6
CONTINUOUS
 62
    3
 10
80.827887000000004
 20
163.25014699999997
 11
80.827887000000004
 21
162.15014699999995
  0
LINE
  8
_0-2_gaikei
  6
CONTINUOUS
 62
    7
 10
91.502886999999987
 20
157.82514700000002
 11
91.502886999999987
 21
164.32514700000002
  0
LINE
  8
_0-1_hojo
  6
CONTINUOUS
 62
    7
 10
93.527887000000007
 20
105.64858500000001
 11
93.527887000000007
 21
105.14858500000001
  0
LINE
  8
_0-2_gaikei
  6
CONTINUOUS
 62
    7
 10
79.152887000000007
 20
158.82514700000002
 11
82.802886999999998
 21
158.82514700000002
  0
LINE
  8
_0-4_fuzoku
  6
CONTINUOUS
 62
    3
 10
79.485406000000012
 20
188.50014699999997
 11
80.827887000000004
 21
188.50014699999997
  0
LINE
  8
_0-2_gaikei
  6
CONTINUOUS
 62
    7
 10
125.525306
 20
157.82514700000002
 11
161.025306
 21
157.82514700000002
  0
LINE
  8
_0-2_gaikei
  6
CONTINUOUS
 62
    7
 10
82.802886999999998
 20
164.32514700000002
 11
79.152887000000007
 21
164.32514700000002
  0
LINE
  8
_0-2_gaikei
  6
CONTINUOUS
 62
    7
 10
92.927886999999998
 20
157.82514700000002
 11
92.927886999999998
 21
156.82514700000002
  0
LINE
  8
_0-2_gaikei
  6
CONTINUOUS
 62
    7
 10
158.025306
 20
166.57514700000002
 11
159.025306
 21
166.57514700000002
  0
LINE
  8
_0-4_fuzoku
  6
CONTINUOUS
 62
    3
 10
91.177886999999998
 20
137.648585
 11
91.177886999999998
 21
137.298585
  0
LINE
  8
_0-2_gaikei
  6
CONTINUOUS
 62
    7
 10
92.927886999999998
 20
114.64858500000001
 11
92.927886999999998
 21
112.64858500000001
  0
LINE
  8
_0-2_gaikei
  6
CONTINUOUS
 62
    7
 10
87.85288700000001
 20
140.148585
 11
87.85288700000001
 21
136.298585
  0
LINE
  8
_0-4_fuzoku
  6
CONTINUOUS
 62
    3
 10
82.802886999999998
 20
160.07514700000002
 11
79.152887000000007
 21
160.07514700000002
  0
LINE
  8
_0-2_gaikei
  6
CONTINUOUS
 62
    7
 10
96.552886999999998
 20
186.32514700000002
 11
96.552886999999998
 21
192.82514700000002
  0
LINE
  8
_0-2_gaikei
  6
CONTINUOUS
 62
    7
 10
100.202887
 20
157.82514700000002
 11
100.202887
 21
164.32514700000002
  0
LINE
  8
_0-4_fuzoku
  6
CONTINUOUS
 62
    3
 10
79.152887000000007
 20
136.798585
 11
82.802886999999998
 21
136.798585
  0
LINE
  8
_0-2_gaikei
  6
CONTINUOUS
 62
    7
 10
86.427886999999998
 20
114.64858500000001
 11
86.427886999999998
 21
112.64858500000001
  0
LINE
  8
_0-4_fuzoku
  6
CONTINUOUS
 62
    3
 10
79.485406000000012
 20
161.85014699999999
 11
80.827887000000004
 21
161.85014699999999
  0
LINE
  8
_0-2_gaikei
  6
CONTINUOUS
 62
    7
 10
100.202887
 20
192.82514700000002
 11
100.202887
 21
186.32514700000002
  0
LINE
  8
_0-2_gaikei
  6
CONTINUOUS
 62
    7
 10
78.427886999999998
 20
173.77514699999995
 11
79.427886999999998
 21
173.77514699999995
  0
LINE
  8
_0-4_fuzoku
  6
CONTINUOUS
 62
    3
 10
85.47788700000001
 20
163.25014699999997
 11
85.47788700000001
 21
162.15014699999995
  0
LINE
  8
_0-2_gaikei
  6
CONTINUOUS
 62
    7
 10
78.72788700000001
 20
176.87514699999997
 11
78.72788700000001
 21
173.77514699999995
  0
LINE
  8
_0-2_gaikei
  6
CONTINUOUS
 62
    7
 10
92.202887000000004
 20
186.32514700000002
 11
92.202887000000004
 21
192.82514700000002
  0
LINE
  8
_0-4_fuzoku
  6
CONTINUOUS
 62
    3
 10
87.85288700000001
 20
136.798585
 11
91.502886999999987
 21
136.798585
  0
LINE
  8
_0-4_fuzoku
  6
CONTINUOUS
 62
    3
 10
89.827887000000004
 20
163.25014699999997
 11
89.827887000000004
 21
162.15014699999995
  0
LINE
  8
_0-2_gaikei
  6
CONTINUOUS
 62
    7
 10
87.152887000000007
 20
186.32514700000002
 11
83.502886999999987
 21
186.32514700000002
  0
LINE
  8
_0-4_fuzoku
  6
CONTINUOUS
 62
    3
 10
85.47788700000001
 20
188.80014700000001
 11
85.47788700000001
 21
189.90014699999995
  0
LINE
  8
_0-4_fuzoku
  6
CONTINUOUS
 62
    3
 10
93.877887000000001
 20
189.90014699999995
 11
94.177886999999998
 21
189.90014699999995
  0
LINE
  8
_0-4_fuzoku
  6
CONTINUOUS
 62
    3
 10
89.527887000000007
 20
187.40014699999995
 11
89.527887000000007
 21
188.50014699999997
  0
LINE
  8
_0-1_hojo
  6
CONTINUOUS
 62
    7
 10
158.025306
 20
157.82514700000002
 11
158.025306
 21
156.500147
  0
LINE
  8
_0-2_gaikei
  6
CONTINUOUS
 62
    7
 10
83.502886999999987
 20
164.32514700000002
 11
83.502886999999987
 21
157.82514700000002
  0
LINE
  8
_0-4_fuzoku
  6
CONTINUOUS
 62
    3
 10
87.152887000000007
 20
160.07514700000002
 11
83.502886999999987
 21
160.07514700000002
  0
LINE
  8
_0-4_fuzoku
  6
CONTINUOUS
 62
    3
 10
83.827887000000004
 20
137.648585
 11
86.827887000000004
 21
137.648585
  0
LINE
  8
_0-4_fuzoku
  6
CONTINUOUS
 62
    3
 10
94.177886999999998
 20
188.80014700000001
 11
94.177886999999998
 21
189.90014699999995
  0
LINE
  8
_0-2_gaikei
  6
CONTINUOUS
 62
    7
 10
87.152887000000007
 20
157.82514700000002
 11
87.152887000000007
 21
164.32514700000002
  0
LINE
  8
_0-2_gaikei
  6
CONTINUOUS
 62
    7
 10
92.427886999999998
 20
173.77514699999995
 11
97.927886999999998
 21
173.77514699999995
  0
LINE
  8
_0-4_fuzoku
  6
CONTINUOUS
 62
    3
 10
83.835406000000006
 20
162.15014699999995
 11
85.177886999999998
 21
162.15014699999995
  0
LINE
  8
_0-4_fuzoku
  6
CONTINUOUS
 62
    3
 10
100.202887
 20
159.82514700000002
 11
96.552886999999998
 21
159.82514700000002
  0
LINE
  8
_0-2_gaikei
  6
CONTINUOUS
 62
    7
 10
78.427886999999998
 20
157.82514700000002
 11
100.927887
 21
157.82514700000002
  0
LINE
  8
_0-2_gaikei
  6
CONTINUOUS
 62
    7
 10
79.152887000000007
 20
164.32514700000002
 11
79.152887000000007
 21
157.82514700000002
  0
LINE
  8
_0-2_gaikei
  6
CONTINUOUS
 62
    7
 10
158.025306
 20
184.07514700000002
 11
158.025306
 21
166.02514699999995
  0
LINE
  8
_0-4_fuzoku
  6
CONTINUOUS
 62
    3
 10
83.835406000000006
 20
161.85014699999999
 11
85.177886999999998
 21
161.85014699999999
  0
LINE
  8
_0-4_fuzoku
  6
CONTINUOUS
 62
    3
 10
82.802886999999998
 20
190.57514700000002
 11
79.152887000000007
 21
190.57514700000002
  0
LINE
  8
_0-4_fuzoku
  6
CONTINUOUS
 62
    3
 10
89.527887000000007
 20
138.97011599999999
 11
89.527887000000007
 21
138.148585
  0
LINE
  8
_0-4_fuzoku
  6
CONTINUOUS
 62
    3
 10
89.827887000000004
 20
188.80014700000001
 11
91.170367999999996
 21
188.80014700000001
  0
LINE
  8
_0-1_hojo
  6
CONTINUOUS
 62
    7
 10
160.525306
 20
157.82514700000002
 11
160.525306
 21
156.500147
  0
LINE
  8
_0-4_fuzoku
  6
CONTINUOUS
 62
    3
 10
82.802886999999998
 20
159.82514700000002
 11
79.152887000000007
 21
159.82514700000002
  0
LINE
  8
_0-4_fuzoku
  6
CONTINUOUS
 62
    3
 10
93.877887000000001
 20
163.25014699999997
 11
93.877887000000001
 21
162.15014699999995
  0
LINE
  8
_0-4_fuzoku
  6
CONTINUOUS
 62
    3
 10
85.47788700000001
 20
161.85014699999999
 11
85.47788700000001
 21
160.75014699999997
  0
LINE
  8
_0-4_fuzoku
  6
CONTINUOUS
 62
    3
 10
79.485406000000012
 20
188.80014700000001
 11
80.827887000000004
 21
188.80014700000001
  0
LINE
  8
_0-2_gaikei
  6
CONTINUOUS
 62
    7
 10
100.202887
 20
186.32514700000002
 11
96.552886999999998
 21
186.32514700000002
  0
LINE
  8
_0-4_fuzoku
  6
CONTINUOUS
 62
    3
 10
89.527887000000007
 20
161.85014699999999
 11
89.527887000000007
 21
160.75014699999997
  0
LINE
  8
_0-1_hojo
  6
CONTINUOUS
 62
    7
 10
92.582887000000014
 20
105.14858500000001
 11
93.527887000000007
 21
105.14858500000001
  0
LINE
  8
_0-4_fuzoku
  6
CONTINUOUS
 62
    3
 10
81.127886999999987
 20
163.25014699999997
 11
81.127886999999987
 21
162.15014699999995
  0
LINE
  8
_0-2_gaikei
  6
CONTINUOUS
 62
    7
 10
96.552886999999998
 20
136.298585
 11
100.202887
 21
136.298585
  0
LINE
  8
_0-4_fuzoku
  6
CONTINUOUS
 62
    3
 10
81.127886999999987
 20
188.50014699999997
 11
82.470368000000008
 21
188.50014699999997
  0
LINE
  8
_0-2_gaikei
  6
CONTINUOUS
 62
    7
 10
79.152887000000007
 20
136.298585
 11
82.802886999999998
 21
136.298585
  0
LINE
  8
_0-4_fuzoku
  6
CONTINUOUS
 62
    3
 10
85.47788700000001
 20
188.50014699999997
 11
86.820368000000002
 21
188.50014699999997
  0
LINE
  8
_0-4_fuzoku
  6
CONTINUOUS
 62
    3
 10
89.527887000000007
 20
160.75014699999997
 11
89.827887000000004
 21
160.75014699999997
  0
LINE
  8
_0-2_gaikei
  6
CONTINUOUS
 62
    7
 10
99.927886999999998
 20
176.87514699999997
 11
100.927887
 21
176.87514699999997
  0
LINE
  8
_0-2_gaikei
  6
CONTINUOUS
 62
    7
 10
99.927886999999998
 20
173.77514699999995
 11
100.927887
 21
173.77514699999995
  0
LINE
  8
_0-4_fuzoku
  6
CONTINUOUS
 62
    3
 10
92.535405999999995
 20
162.15014699999995
 11
93.877887000000001
 21
162.15014699999995
  0
LINE
  8
_0-1_hojo
  6
CONTINUOUS
 62
    7
 10
92.582887000000014
 20
105.14858500000001
 11
92.582887000000014
 21
103.24858500000001
  0
LINE
  8
_0-4_fuzoku
  6
CONTINUOUS
 62
    3
 10
95.85288700000001
 20
159.82514700000002
 11
92.202887000000004
 21
159.82514700000002
  0
LINE
  8
_0-4_fuzoku
  6
CONTINUOUS
 62
    3
 10
83.835406000000006
 20
188.80014700000001
 11
85.177886999999998
 21
188.80014700000001
  0
LINE
  8
_0-2_gaikei
  6
CONTINUOUS
 62
    7
 10
85.627886999999987
 20
105.048585
 11
86.772886999999997
 21
105.048585
  0
LINE
  8
_0-4_fuzoku
  6
CONTINUOUS
 62
    3
 10
81.127886999999987
 20
161.85014699999999
 11
82.470368000000008
 21
161.85014699999999
  0
LINE
  8
_0-2_gaikei
  6
CONTINUOUS
 62
    7
 10
139.87530599999999
 20
176.82514700000002
 11
139.87530599999999
 21
173.82514700000002
  0
LINE
  8
_0-4_fuzoku
  6
CONTINUOUS
 62
    3
 10
89.827887000000004
 20
161.85014699999999
 11
89.827887000000004
 21
160.75014699999997
  0
LINE
  8
_0-2_gaikei
  6
CONTINUOUS
 62
    7
 10
91.502886999999987
 20
164.32514700000002
 11
87.85288700000001
 21
164.32514700000002
  0
LINE
  8
_0-4_fuzoku
  6
CONTINUOUS
 62
    3
 10
89.527887000000007
 20
188.80014700000001
 11
89.527887000000007
 21
189.90014699999995
  0
LINE
  8
_0-2_gaikei
  6
CONTINUOUS
 62
    7
 10
85.627886999999987
 20
105.64858500000001
 11
85.627886999999987
 21
102.64858500000001
  0
LINE
  8
_0-2_gaikei
  6
CONTINUOUS
 62
    7
 10
95.85288700000001
 20
192.82514700000002
 11
95.85288700000001
 21
186.32514700000002
  0
LINE
  8
_0-2_gaikei
  6
CONTINUOUS
 62
    7
 10
87.85288700000001
 20
158.82514700000002
 11
91.502886999999987
 21
158.82514700000002
  0
LINE
  8
_0-4_fuzoku
  6
CONTINUOUS
 62
    3
 10
98.527887000000007
 20
138.97011599999999
 11
98.527887000000007
 21
138.148585
  0
LINE
  8
_0-2_gaikei
  6
CONTINUOUS
 62
    7
 10
91.502886999999987
 20
186.32514700000002
 11
87.85288700000001
 21
186.32514700000002
  0
LINE
  8
_0-4_fuzoku
  6
CONTINUOUS
 62
    3
 10
100.202887
 20
186.72514699999999
 11
96.552886999999998
 21
186.72514699999999
  0
LINE
  8
_0-1_hojo
  6
CONTINUOUS
 62
    7
 10
85.72788700000001
 20
156.500147
 11
93.627887000000001
 21
156.500147
  0
LINE
  8
_0-4_fuzoku
  6
CONTINUOUS
 62
    3
 10
98.527887000000007
 20
161.85014699999999
 11
98.527887000000007
 21
160.75014699999997
  0
LINE
  8
_0-2_gaikei
  6
CONTINUOUS
 62
    7
 10
83.502886999999987
 20
140.148585
 11
83.502886999999987
 21
136.298585
  0
LINE
  8
_0-2_gaikei
  6
CONTINUOUS
 62
    7
 10
139.62530599999999
 20
177.07514700000002
 11
141.62530599999999
 21
177.07514700000002
  0
LINE
  8
_0-2_gaikei
  6
CONTINUOUS
 62
    7
 10
82.802886999999998
 20
186.32514700000002
 11
79.152887000000007
 21
186.32514700000002
  0
LINE
  8
_0-4_fuzoku
  6
CONTINUOUS
 62
    3
 10
93.877887000000001
 20
188.80014700000001
 11
93.877887000000001
 21
189.90014699999995
  0
LINE
  8
_0-4_fuzoku
  6
CONTINUOUS
 62
    3
 10
93.877887000000001
 20
138.97011599999999
 11
93.877887000000001
 21
138.148585
  0
LINE
  8
_0-4_fuzoku
  6
CONTINUOUS
 62
    3
 10
96.885406000000003
 20
188.80014700000001
 11
98.22788700000001
 21
188.80014700000001
  0
LINE
  8
_0-2_gaikei
  6
CONTINUOUS
 62
    7
 10
139.62530599999999
 20
173.57514700000002
 11
141.62530599999999
 21
173.57514700000002
  0
LINE
  8
_0-4_fuzoku
  6
CONTINUOUS
 62
    3
 10
96.885406000000003
 20
161.85014699999999
 11
98.22788700000001
 21
161.85014699999999
  0
LINE
  8
_0-2_gaikei
  6
CONTINUOUS
 62
    7
 10
91.502886999999987
 20
192.82514700000002
 11
91.502886999999987
 21
186.32514700000002
  0
LINE
  8
_0-4_fuzoku
  6
CONTINUOUS
 62
    3
 10
98.527887000000007
 20
188.80014700000001
 11
99.870367999999999
 21
188.80014700000001
  0
LINE
  8
_0-4_fuzoku
  6
CONTINUOUS
 62
    3
 10
88.185406
 20
162.15014699999995
 11
89.527887000000007
 21
162.15014699999995
  0
LINE
  8
_0-2_gaikei
  6
CONTINUOUS
 62
    7
 10
99.927886999999998
 20
173.77514699999995
 11
99.927886999999998
 21
176.87514699999997
  0
LINE
  8
_0-2_gaikei
  6
CONTINUOUS
 62
    7
 10
86.427886999999998
 20
157.82514700000002
 11
86.427886999999998
 21
156.82514700000002
  0
LINE
  8
_0-4_fuzoku
  6
CONTINUOUS
 62
    3
 10
98.22788700000001
 20
187.40014699999995
 11
98.22788700000001
 21
188.50014699999997
  0
LINE
  8
_0-4_fuzoku
  6
CONTINUOUS
 62
    3
 10
95.85288700000001
 20
160.07514700000002
 11
92.202887000000004
 21
160.07514700000002
  0
LINE
  8
_0-4_fuzoku
  6
CONTINUOUS
 62
    3
 10
95.85288700000001
 20
163.92514700000001
 11
92.202887000000004
 21
163.92514700000001
  0
LINE
  8
_0-4_fuzoku
  6
CONTINUOUS
 62
    3
 10
93.877887000000001
 20
187.40014699999995
 11
93.877887000000001
 21
188.50014699999997
  0
LINE
  8
_0-2_gaikei
  6
CONTINUOUS
 62
    7
 10
78.427886999999998
 20
102.64858500000001
 11
100.927887
 21
102.64858500000001
  0
LINE
  8
_0-4_fuzoku
  6
CONTINUOUS
 62
    3
 10
82.802886999999998
 20
186.72514699999999
 11
79.152887000000007
 21
186.72514699999999
  0
LINE
  8
_0-4_fuzoku
  6
CONTINUOUS
 62
    3
 10
94.177886999999998
 20
162.15014699999995
 11
95.520368000000005
 21
162.15014699999995
  0
LINE
  8
_0-4_fuzoku
  6
CONTINUOUS
 62
    3
 10
89.827887000000004
 20
162.15014699999995
 11
91.170367999999996
 21
162.15014699999995
  0
LINE
  8
_0-2_gaikei
  6
CONTINUOUS
 62
    7
 10
92.202887000000004
 20
158.82514700000002
 11
95.85288700000001
 21
158.82514700000002
  0
LINE
  8
_0-4_fuzoku
  6
CONTINUOUS
 62
    3
 10
81.127886999999987
 20
162.15014699999995
 11
82.470368000000008
 21
162.15014699999995
  0
LINE
  8
_0-4_fuzoku
  6
CONTINUOUS
 62
    3
 10
95.85288700000001
 20
190.57514700000002
 11
92.202887000000004
 21
190.57514700000002
  0
LINE
  8
_0-4_fuzoku
  6
CONTINUOUS
 62
    3
 10
80.827887000000004
 20
161.85014699999999
 11
80.827887000000004
 21
160.75014699999997
  0
LINE
  8
_0-2_gaikei
  6
CONTINUOUS
 62
    7
 10
161.025306
 20
165.82514700000002
 11
161.025306
 21
157.82514700000002
  0
LINE
  8
_0-2_gaikei
  6
CONTINUOUS
 62
    7
 10
85.627886999999987
 20
103.24858500000001
 11
85.802886999999998
 21
103.24858500000001
  0
LINE
  8
_0-2_gaikei
  6
CONTINUOUS
 62
    7
 10
100.202887
 20
140.148585
 11
100.202887
 21
136.298585
  0
LINE
  8
_0-2_gaikei
  6
CONTINUOUS
 62
    7
 10
100.927887
 20
157.82514700000002
 11
100.927887
 21
192.82514700000002
  0
LINE
  8
_0-4_fuzoku
  6
CONTINUOUS
 62
    3
 10
88.177886999999998
 20
137.648585
 11
91.177886999999998
 21
137.648585
  0
LINE
  8
_0-2_gaikei
  6
CONTINUOUS
 62
    7
 10
139.87530599999999
 20
173.82514700000002
 11
141.62530599999999
 21
173.82514700000002
  0
LINE
  8
_0-4_fuzoku
  6
CONTINUOUS
 62
    3
 10
80.827887000000004
 20
163.25014699999997
 11
81.127886999999987
 21
163.25014699999997
  0
LINE
  8
_0-2_gaikei
  6
CONTINUOUS
 62
    7
 10
78.427886999999998
 20
176.87514699999997
 11
79.427886999999998
 21
176.87514699999997
  0
LINE
  8
_0-4_fuzoku
  6
CONTINUOUS
 62
    3
 10
94.177886999999998
 20
188.80014700000001
 11
95.520368000000005
 21
188.80014700000001
  0
LINE
  8
_0-2_gaikei
  6
CONTINUOUS
 62
    7
 10
82.802886999999998
 20
140.148585
 11
82.802886999999998
 21
136.298585
  0
LINE
  8
_0-4_fuzoku
  6
CONTINUOUS
 62
    3
 10
98.527887000000007
 20
188.80014700000001
 11
98.527887000000007
 21
189.90014699999995
  0
LINE
  8
_0-4_fuzoku
  6
CONTINUOUS
 62
    3
 10
91.502886999999987
 20
159.82514700000002
 11
87.85288700000001
 21
159.82514700000002
  0
LINE
  8
_0-4_fuzoku
  6
CONTINUOUS
 62
    3
 10
93.877887000000001
 20
160.75014699999997
 11
94.177886999999998
 21
160.75014699999997
  0
LINE
  8
_0-4_fuzoku
  6
CONTINUOUS
 62
    3
 10
98.22788700000001
 20
163.25014699999997
 11
98.22788700000001
 21
162.15014699999995
  0
LINE
  8
_0-2_gaikei
  6
CONTINUOUS
 62
    7
 10
78.427886999999998
 20
140.148585
 11
78.427886999999998
 21
102.64858500000001
  0
LINE
  8
_0-4_fuzoku
  6
CONTINUOUS
 62
    3
 10
79.152887000000007
 20
137.298585
 11
82.802886999999998
 21
137.298585
  0
LINE
  8
_0-2_gaikei
  6
CONTINUOUS
 62
    7
 10
79.152887000000007
 20
140.148585
 11
79.152887000000007
 21
136.298585
  0
LINE
  8
_0-4_fuzoku
  6
CONTINUOUS
 62
    3
 10
83.502886999999987
 20
137.298585
 11
87.152887000000007
 21
137.298585
  0
LINE
  8
_0-4_fuzoku
  6
CONTINUOUS
 62
    3
 10
87.152887000000007
 20
186.72514699999999
 11
83.502886999999987
 21
186.72514699999999
  0
LINE
  8
_0-4_fuzoku
  6
CONTINUOUS
 62
    3
 10
95.85288700000001
 20
186.72514699999999
 11
92.202887000000004
 21
186.72514699999999
  0
LINE
  8
_0-1_hojo
  6
CONTINUOUS
 62
    7
 10
158.525306
 20
157.82514700000002
 11
158.525306
 21
156.500147
  0
LINE
  8
_0-4_fuzoku
  6
CONTINUOUS
 62
    3
 10
81.127886999999987
 20
187.40014699999995
 11
81.127886999999987
 21
188.50014699999997
  0
LINE
  8
_0-4_fuzoku
  6
CONTINUOUS
 62
    3
 10
89.827887000000004
 20
188.50014699999997
 11
91.170367999999996
 21
188.50014699999997
  0
LINE
  8
_0-4_fuzoku
  6
CONTINUOUS
 62
    3
 10
89.527887000000007
 20
187.40014699999995
 11
89.827887000000004
 21
187.40014699999995
  0
LINE
  8
_0-2_gaikei
  6
CONTINUOUS
 62
    7
 10
87.152887000000007
 20
140.148585
 11
87.152887000000007
 21
136.298585
  0
LINE
  8
_0-2_gaikei
  6
CONTINUOUS
 62
    7
 10
96.552886999999998
 20
140.148585
 11
96.552886999999998
 21
136.298585
  0
LINE
  8
_0-2_gaikei
  6
CONTINUOUS
 62
    7
 10
93.72788700000001
 20
105.64858500000001
 11
93.72788700000001
 21
102.64858500000001
  0
LINE
  8
_0-2_gaikei
  6
CONTINUOUS
 62
    7
 10
87.85288700000001
 20
136.298585
 11
91.502886999999987
 21
136.298585
  0
LINE
  8
_0-2_gaikei
  6
CONTINUOUS
 62
    7
 10
79.427886999999998
 20
184.32514700000002
 11
99.927886999999998
 21
184.32514700000002
  0
LINE
  8
_0-4_fuzoku
  6
CONTINUOUS
 62
    3
 10
82.802886999999998
 20
190.82514700000002
 11
79.152887000000007
 21
190.82514700000002
  0
LINE
  8
_0-4_fuzoku
  6
CONTINUOUS
 62
    3
 10
92.527887000000007
 20
137.648585
 11
95.527887000000007
 21
137.648585
  0
LINE
  8
_0-2_gaikei
  6
CONTINUOUS
 62
    7
 10
95.85288700000001
 20
186.32514700000002
 11
92.202887000000004
 21
186.32514700000002
  0
LINE
  8
_0-1_hojo
  6
CONTINUOUS
 62
    6
 10
87.85288700000001
 20
162.00014699999997
 11
91.502886999999987
 21
162.00014699999997
  0
LINE
  8
_0-2_gaikei
  6
CONTINUOUS
 62
    7
 10
123.525306
 20
176.87514699999997
 11
137.525306
 21
176.87514699999997
  0
LINE
  8
_0-2_gaikei
  6
CONTINUOUS
 62
    7
 10
160.025306
 20
165.82514700000002
 11
161.025306
 21
165.82514700000002
  0
LINE
  8
_0-2_gaikei
  6
CONTINUOUS
 62
    7
 10
92.202887000000004
 20
191.82514700000002
 11
95.85288700000001
 21
191.82514700000002
  0
LINE
  8
_0-4_fuzoku
  6
CONTINUOUS
 62
    3
 10
91.502886999999987
 20
190.57514700000002
 11
87.85288700000001
 21
190.57514700000002
  0
LINE
  8
_0-4_fuzoku
  6
CONTINUOUS
 62
    3
 10
80.827887000000004
 20
189.90014699999995
 11
81.127886999999987
 21
189.90014699999995
  0
LINE
  8
_0-4_fuzoku
  6
CONTINUOUS
 62
    3
 10
89.527887000000007
 20
189.90014699999995
 11
89.827887000000004
 21
189.90014699999995
  0
LINE
  8
_0-2_gaikei
  6
CONTINUOUS
 62
    7
 10
87.152887000000007
 20
192.82514700000002
 11
87.152887000000007
 21
186.32514700000002
  0
LINE
  8
_0-2_gaikei
  6
CONTINUOUS
 62
    7
 10
87.152887000000007
 20
164.32514700000002
 11
83.502886999999987
 21
164.32514700000002
  0
LINE
  8
_0-2_gaikei
  6
CONTINUOUS
 62
    7
 10
92.802886999999998
 20
105.048585
 11
92.802886999999998
 21
103.99858500000001
  0
LINE
  8
_0-4_fuzoku
  6
CONTINUOUS
 62
    3
 10
82.802886999999998
 20
163.92514700000001
 11
79.152887000000007
 21
163.92514700000001
  0
LINE
  8
_0-4_fuzoku
  6
CONTINUOUS
 62
    3
 10
81.127886999999987
 20
188.80014700000001
 11
81.127886999999987
 21
189.90014699999995
  0
LINE
  8
_0-2_gaikei
  6
CONTINUOUS
 62
    7
 10
161.025306
 20
182.82514700000002
 11
158.67530599999998
 21
183.57514700000002
  0
LINE
  8
_0-2_gaikei
  6
CONTINUOUS
 62
    7
 10
123.525306
 20
190.82514700000002
 11
123.525306
 21
176.87514699999997
  0
LINE
  8
_0-4_fuzoku
  6
CONTINUOUS
 62
    3
 10
94.177886999999998
 20
138.97011599999999
 11
94.177886999999998
 21
138.148585
  0
LINE
  8
_0-4_fuzoku
  6
CONTINUOUS
 62
    3
 10
85.177886999999998
 20
189.90014699999995
 11
85.47788700000001
 21
189.90014699999995
  0
LINE
  8
_0-4_fuzoku
  6
CONTINUOUS
 62
    3
 10
92.535405999999995
 20
188.50014699999997
 11
93.877887000000001
 21
188.50014699999997
  0
LINE
  8
_0-2_gaikei
  6
CONTINUOUS
 62
    7
 10
78.427886999999998
 20
126.14858500000001
 11
100.927887
 21
126.14858500000001
  0
LINE
  8
_0-4_fuzoku
  6
CONTINUOUS
 62
    3
 10
91.502886999999987
 20
160.07514700000002
 11
87.85288700000001
 21
160.07514700000002
  0
LINE
  8
_0-2_gaikei
  6
CONTINUOUS
 62
    7
 10
123.525306
 20
159.82514700000002
 11
125.525306
 21
157.82514700000002
  0
LINE
  8
_0-2_gaikei
  6
CONTINUOUS
 62
    7
 10
141.62530599999999
 20
177.07514700000002
 11
141.62530599999999
 21
173.57514700000002
  0
LINE
  8
_0-4_fuzoku
  6
CONTINUOUS
 62
    3
 10
98.22788700000001
 20
138.148585
 11
98.527887000000007
 21
138.148585
  0
LINE
  8
_0-2_gaikei
  6
CONTINUOUS
 62
    7
 10
92.202887000000004
 20
140.148585
 11
92.202887000000004
 21
136.298585
  0
LINE
  8
_0-2_gaikei
  6
CONTINUOUS
 62
    7
 10
123.525306
 20
190.82514700000002
 11
125.525306
 21
192.82514700000002
  0
LINE
  8
_0-2_gaikei
  6
CONTINUOUS
 62
    7
 10
158.025306
 20
166.02514699999995
 11
159.75863900000002
 21
166.02514699999995
  0
LINE
  8
_0-4_fuzoku
  6
CONTINUOUS
 62
    3
 10
96.552886999999998
 20
136.798585
 11
100.202887
 21
136.798585
  0
LINE
  8
_0-2_gaikei
  6
CONTINUOUS
 62
    7
 10
100.927887
 20
140.148585
 11
100.927887
 21
102.64858500000001
  0
LINE
  8
_0-2_gaikei
  6
CONTINUOUS
 62
    7
 10
99.927886999999998
 20
184.32514700000002
 11
99.927886999999998
 21
166.32514700000002
  0
LINE
  8
_0-4_fuzoku
  6
CONTINUOUS
 62
    3
 10
85.177886999999998
 20
163.25014699999997
 11
85.177886999999998
 21
162.15014699999995
  0
LINE
  8
_0-2_gaikei
  6
CONTINUOUS
 62
    7
 10
123.525306
 20
173.77514699999995
 11
123.525306
 21
159.82514700000002
  0
LINE
  8
_0-2_gaikei
  6
CONTINUOUS
 62
    7
 10
87.85288700000001
 20
186.32514700000002
 11
87.85288700000001
 21
192.82514700000002
  0
LINE
  8
_0-2_gaikei
  6
CONTINUOUS
 62
    7
 10
79.427886999999998
 20
166.32514700000002
 11
99.927886999999998
 21
166.32514700000002
  0
LINE
  8
_0-4_fuzoku
  6
CONTINUOUS
 62
    3
 10
91.502886999999987
 20
190.82514700000002
 11
87.85288700000001
 21
190.82514700000002
  0
LINE
  8
_0-4_fuzoku
  6
CONTINUOUS
 62
    3
 10
98.22788700000001
 20
163.25014699999997
 11
98.527887000000007
 21
163.25014699999997
  0
LINE
  8
_0-2_gaikei
  6
CONTINUOUS
 62
    7
 10
137.525306
 20
192.82514700000002
 11
137.525306
 21
157.82514700000002
  0
LINE
  8
_0-4_fuzoku
  6
CONTINUOUS
 62
    3
 10
98.527887000000007
 20
187.40014699999995
 11
98.527887000000007
 21
188.50014699999997
  0
LINE
  8
_0-4_fuzoku
  6
CONTINUOUS
 62
    3
 10
80.827887000000004
 20
187.40014699999995
 11
80.827887000000004
 21
188.50014699999997
  0
LINE
  8
_0-2_gaikei
  6
CONTINUOUS
 62
    7
 10
123.525306
 20
173.77514699999995
 11
137.525306
 21
173.77514699999995
  0
LINE
  8
_0-2_gaikei
  6
CONTINUOUS
 62
    7
 10
96.552886999999998
 20
164.32514700000002
 11
96.552886999999998
 21
157.82514700000002
  0
LINE
  8
_0-4_fuzoku
  6
CONTINUOUS
 62
    3
 10
79.47788700000001
 20
137.648585
 11
82.47788700000001
 21
137.648585
  0
LINE
  8
_0-4_fuzoku
  6
CONTINUOUS
 62
    3
 10
100.202887
 20
190.57514700000002
 11
96.552886999999998
 21
190.57514700000002
  0
LINE
  8
_0-1_hojo
  6
CONTINUOUS
 62
    7
 10
85.847887000000014
 20
105.64858500000001
 11
85.847887000000014
 21
105.14858500000001
  0
LINE
  8
_0-2_gaikei
  6
CONTINUOUS
 62
    7
 10
95.85288700000001
 20
140.148585
 11
95.85288700000001
 21
136.298585
  0
LINE
  8
_0-4_fuzoku
  6
CONTINUOUS
 62
    3
 10
85.47788700000001
 20
187.40014699999995
 11
85.47788700000001
 21
188.50014699999997
  0
LINE
  8
_0-2_gaikei
  6
CONTINUOUS
 62
    7
 10
79.427886999999998
 20
176.87514699999997
 11
79.427886999999998
 21
173.77514699999995
  0
LINE
  8
_0-2_gaikei
  6
CONTINUOUS
 62
    7
 10
83.502886999999987
 20
191.82514700000002
 11
87.152887000000007
 21
191.82514700000002
  0
LINE
  8
_0-2_gaikei
  6
CONTINUOUS
 62
    7
 10
83.502886999999987
 20
136.298585
 11
87.152887000000007
 21
136.298585
  0
LINE
  8
_0-4_fuzoku
  6
CONTINUOUS
 62
    3
 10
89.527887000000007
 20
163.25014699999997
 11
89.827887000000004
 21
163.25014699999997
  0
LINE
  8
_0-4_fuzoku
  6
CONTINUOUS
 62
    3
 10
92.202887000000004
 20
136.798585
 11
95.85288700000001
 21
136.798585
  0
LINE
  8
_0-4_fuzoku
  6
CONTINUOUS
 62
    3
 10
98.22788700000001
 20
187.40014699999995
 11
98.527887000000007
 21
187.40014699999995
  0
LINE
  8
_0-4_fuzoku
  6
CONTINUOUS
 62
    3
 10
85.47788700000001
 20
162.15014699999995
 11
86.820368000000002
 21
162.15014699999995
  0
LINE
  8
_0-4_fuzoku
  6
CONTINUOUS
 62
    3
 10
98.22788700000001
 20
161.85014699999999
 11
98.22788700000001
 21
160.75014699999997
  0
LINE
  8
_0-2_gaikei
  6
CONTINUOUS
 62
    7
 10
78.427886999999998
 20
105.64858500000001
 11
100.927887
 21
105.64858500000001
  0
LINE
  8
_0-4_fuzoku
  6
CONTINUOUS
 62
    3
 10
85.47788700000001
 20
138.97011599999999
 11
85.47788700000001
 21
138.148585
  0
LINE
  8
_0-4_fuzoku
  6
CONTINUOUS
 62
    3
 10
98.22788700000001
 20
188.80014700000001
 11
98.22788700000001
 21
189.90014699999995
  0
LINE
  8
_0-2_gaikei
  6
CONTINUOUS
 62
    7
 10
95.85288700000001
 20
164.32514700000002
 11
92.202887000000004
 21
164.32514700000002
  0
LINE
  8
_0-2_gaikei
  6
CONTINUOUS
 62
    7
 10
87.85288700000001
 20
164.32514700000002
 11
87.85288700000001
 21
157.82514700000002
  0
LINE
  8
_0-1_hojo
  6
CONTINUOUS
 62
    7
 10
86.772886999999997
 20
103.24858500000001
 11
92.582887000000014
 21
103.24858500000001
  0
LINE
  8
_0-2_gaikei
  6
CONTINUOUS
 62
    7
 10
124.025306
 20
176.87514699999997
 11
124.025306
 21
173.77514699999995
  0
LINE
  8
_0-1_hojo
  6
CONTINUOUS
 62
    7
 10
93.627887000000001
 20
157.82514700000002
 11
93.627887000000001
 21
156.500147
  0
LINE
  8
_0-4_fuzoku
  6
CONTINUOUS
 62
    3
 10
95.527887000000007
 20
137.648585
 11
95.527887000000007
 21
137.298585
  0
LINE
  8
_0-4_fuzoku
  6
CONTINUOUS
 62
    3
 10
92.527887000000007
 20
137.648585
 11
92.527887000000007
 21
137.298585
  0
LINE
  8
_0-2_gaikei
  6
CONTINUOUS
 62
    7
 10
139.87530599999999
 20
176.82514700000002
 11
141.62530599999999
 21
176.82514700000002
  0
LINE
  8
_0-2_gaikei
  6
CONTINUOUS
 62
    7
 10
161.025306
 20
192.82514700000002
 11
161.025306
 21
182.82514700000002
  0
LINE
  8
_0-2_gaikei
  6
CONTINUOUS
 62
    7
 10
79.152887000000007
 20
186.32514700000002
 11
79.152887000000007
 21
192.82514700000002
  0
LINE
  8
_0-4_fuzoku
  6
CONTINUOUS
 62
    3
 10
96.877887000000001
 20
137.648585
 11
96.877887000000001
 21
137.298585
  0
LINE
  8
_0-4_fuzoku
  6
CONTINUOUS
 62
    3
 10
80.827887000000004
 20
187.40014699999995
 11
81.127886999999987
 21
187.40014699999995
  0
LINE
  8
_0-2_gaikei
  6
CONTINUOUS
 62
    7
 10
92.427886999999998
 20
173.77514699999995
 11
92.427886999999998
 21
176.82514700000002
  0
LINE
  8
_0-2_gaikei
  6
CONTINUOUS
 62
    7
 10
92.427886999999998
 20
176.82514700000002
 11
97.927886999999998
 21
176.82514700000002
  0
LINE
  8
_0-4_fuzoku
  6
CONTINUOUS
 62
    3
 10
98.527887000000007
 20
161.85014699999999
 11
99.870367999999999
 21
161.85014699999999
  0
LINE
  8
_0-1_hojo
  6
CONTINUOUS
 62
    7
 10
85.847887000000014
 20
105.14858500000001
 11
86.772886999999997
 21
105.14858500000001
  0
LINE
  8
_0-4_fuzoku
  6
CONTINUOUS
 62
    3
 10
87.85288700000001
 20
137.298585
 11
91.502886999999987
 21
137.298585
  0
LINE
  8
_0-4_fuzoku
  6
CONTINUOUS
 62
    3
 10
94.177886999999998
 20
161.85014699999999
 11
95.520368000000005
 21
161.85014699999999
  0
LINE
  8
_0-4_fuzoku
  6
CONTINUOUS
 62
    3
 10
88.185406
 20
188.80014700000001
 11
89.527887000000007
 21
188.80014700000001
  0
LINE
  8
_0-4_fuzoku
  6
CONTINUOUS
 62
    3
 10
87.152887000000007
 20
159.82514700000002
 11
83.502886999999987
 21
159.82514700000002
  0
LINE
  8
_0-4_fuzoku
  6
CONTINUOUS
 62
    3
 10
98.527887000000007
 20
188.50014699999997
 11
99.870367999999999
 21
188.50014699999997
  0
LINE
  8
_0-2_gaikei
  6
CONTINUOUS
 62
    7
 10
93.552886999999998
 20
103.24858500000001
 11
93.72788700000001
 21
103.24858500000001
  0
LINE
  8
_0-4_fuzoku
  6
CONTINUOUS
 62
    3
 10
83.835406000000006
 20
188.50014699999997
 11
85.177886999999998
 21
188.50014699999997
  0
LINE
  8
_0-4_fuzoku
  6
CONTINUOUS
 62
    3
 10
83.827887000000004
 20
137.648585
 11
83.827887000000004
 21
137.298585
  0
LINE
  8
_0-2_gaikei
  6
CONTINUOUS
 62
    7
 10
92.582887000000014
 20
105.048585
 11
93.72788700000001
 21
105.048585
  0
LINE
  8
_0-4_fuzoku
  6
CONTINUOUS
 62
    3
 10
89.827887000000004
 20
138.97011599999999
 11
89.827887000000004
 21
138.148585
  0
LINE
  8
_0-4_fuzoku
  6
CONTINUOUS
 62
    3
 10
80.827887000000004
 20
138.97011599999999
 11
80.827887000000004
 21
138.148585
  0
LINE
  8
_0-4_fuzoku
  6
CONTINUOUS
 62
    3
 10
87.152887000000007
 20
163.92514700000001
 11
83.502886999999987
 21
163.92514700000001
  0
LINE
  8
_0-2_gaikei
  6
CONTINUOUS
 62
    7
 10
87.85288700000001
 20
191.82514700000002
 11
91.502886999999987
 21
191.82514700000002
  0
LINE
  8
_0-1_hojo
  6
CONTINUOUS
 62
    7
 10
158.025306
 20
156.500147
 11
160.525306
 21
156.500147
  0
LINE
  8
_0-4_fuzoku
  6
CONTINUOUS
 62
    3
 10
80.827887000000004
 20
138.148585
 11
81.127886999999987
 21
138.148585
  0
LINE
  8
_0-2_gaikei
  6
CONTINUOUS
 62
    7
 10
92.202887000000004
 20
164.32514700000002
 11
92.202887000000004
 21
157.82514700000002
  0
LINE
  8
_0-2_gaikei
  6
CONTINUOUS
 62
    7
 10
86.427886999999998
 20
156.82514700000002
 11
92.927886999999998
 21
156.82514700000002
  0
LINE
  8
_0-4_fuzoku
  6
CONTINUOUS
 62
    3
 10
79.485406000000012
 20
162.15014699999995
 11
80.827887000000004
 21
162.15014699999995
  0
LINE
  8
_0-4_fuzoku
  6
CONTINUOUS
 62
    3
 10
96.552886999999998
 20
137.298585
 11
100.202887
 21
137.298585
  0
LINE
  8
_0-4_fuzoku
  6
CONTINUOUS
 62
    3
 10
89.527887000000007
 20
138.148585
 11
89.827887000000004
 21
138.148585
  0
LINE
  8
_0-4_fuzoku
  6
CONTINUOUS
 62
    3
 10
92.535405999999995
 20
161.85014699999999
 11
93.877887000000001
 21
161.85014699999999
  0
LINE
  8
_0-4_fuzoku
  6
CONTINUOUS
 62
    3
 10
89.827887000000004
 20
187.40014699999995
 11
89.827887000000004
 21
188.50014699999997
  0
LINE
  8
_0-4_fuzoku
  6
CONTINUOUS
 62
    3
 10
88.177886999999998
 20
137.648585
 11
88.177886999999998
 21
137.298585
  0
LINE
  8
_0-4_fuzoku
  6
CONTINUOUS
 62
    3
 10
89.827887000000004
 20
188.80014700000001
 11
89.827887000000004
 21
189.90014699999995
  0
LINE
  8
_0-4_fuzoku
  6
CONTINUOUS
 62
    3
 10
80.827887000000004
 20
160.75014699999997
 11
81.127886999999987
 21
160.75014699999997
  0
LINE
  8
_0-4_fuzoku
  6
CONTINUOUS
 62
    3
 10
85.177886999999998
 20
160.75014699999997
 11
85.47788700000001
 21
160.75014699999997
  0
LINE
  8
_0-4_fuzoku
  6
CONTINUOUS
 62
    3
 10
91.502886999999987
 20
163.92514700000001
 11
87.85288700000001
 21
163.92514700000001
  0
LINE
  8
_0-2_gaikei
  6
CONTINUOUS
 62
    7
 10
83.502886999999987
 20
186.32514700000002
 11
83.502886999999987
 21
192.82514700000002
  0
LINE
  8
_0-4_fuzoku
  6
CONTINUOUS
 62
    3
 10
98.22788700000001
 20
138.97011599999999
 11
98.22788700000001
 21
138.148585
  0
LINE
  8
_0-2_gaikei
  6
CONTINUOUS
 62
    7
 10
159.025306
 20
166.57514700000002
 11
161.025306
 21
165.07514700000002
  0
LINE
  8
_0-4_fuzoku
  6
CONTINUOUS
 62
    3
 10
93.877887000000001
 20
163.25014699999997
 11
94.177886999999998
 21
163.25014699999997
  0
LINE
  8
_0-2_gaikei
  6
CONTINUOUS
 62
    7
 10
97.927886999999998
 20
173.77514699999995
 11
97.927886999999998
 21
176.82514700000002
  0
LINE
  8
_0-4_fuzoku
  6
CONTINUOUS
 62
    3
 10
95.85288700000001
 20
190.82514700000002
 11
92.202887000000004
 21
190.82514700000002
  0
LINE
  8
_0-4_fuzoku
  6
CONTINUOUS
 62
    3
 10
93.877887000000001
 20
161.85014699999999
 11
93.877887000000001
 21
160.75014699999997
  0
LINE
  8
_0-4_fuzoku
  6
CONTINUOUS
 62
    3
 10
85.177886999999998
 20
161.85014699999999
 11
85.177886999999998
 21
160.75014699999997
  0
LINE
  8
_0-4_fuzoku
  6
CONTINUOUS
 62
    3
 10
98.527887000000007
 20
163.25014699999997
 11
98.527887000000007
 21
162.15014699999995
  0
LINE
  8
_0-4_fuzoku
  6
CONTINUOUS
 62
    3
 10
81.127886999999987
 20
138.97011599999999
 11
81.127886999999987
 21
138.148585
  0
LINE
  8
_0-4_fuzoku
  6
CONTINUOUS
 62
    3
 10
99.877887000000001
 20
137.648585
 11
99.877887000000001
 21
137.298585
  0
LINE
  8
_0-4_fuzoku
  6
CONTINUOUS
 62
    3
 10
92.535405999999995
 20
188.80014700000001
 11
93.877887000000001
 21
188.80014700000001
  0
LINE
  8
_0-4_fuzoku
  6
CONTINUOUS
 62
    3
 10
94.177886999999998
 20
163.25014699999997
 11
94.177886999999998
 21
162.15014699999995
  0
LINE
  8
_0-4_fuzoku
  6
CONTINUOUS
 62
    3
 10
88.185406
 20
188.50014699999997
 11
89.527887000000007
 21
188.50014699999997
  0
LINE
  8
_0-4_fuzoku
  6
CONTINUOUS
 62
    3
 10
87.152887000000007
 20
190.82514700000002
 11
83.502886999999987
 21
190.82514700000002
  0
LINE
  8
_0-3_zubanwaku
  6
CONTINUOUS
 62
    7
 10
202.46078999999997
 20
61.096615
 11
326.96079000000003
 21
61.096615
  0
LINE
  8
_0-3_zubanwaku
  6
CONTINUOUS
 62
    7
 10
202.46078999999997
 20
70.096615
 11
202.46078999999997
 21
34.096615
  0
LINE
  8
_0-3_zubanwaku
  6
CONTINUOUS
 62
    7
 10
202.46078999999997
 20
70.096615
 11
326.96079000000003
 21
70.096615
  0
LINE
  8
_0-3_zubanwaku
  6
CONTINUOUS
 62
    7
 10
307.46079000000003
 20
70.096615
 11
307.46079000000003
 21
52.096615
  0
LINE
  8
_0-3_zubanwaku
  6
CONTINUOUS
 62
    7
 10
202.46078999999997
 20
34.096615
 11
326.96079000000003
 21
34.096615
  0
LINE
  8
_0-3_zubanwaku
  6
CONTINUOUS
 62
    7
 10
202.46078999999997
 20
43.096615
 11
326.96079000000003
 21
43.096615
  0
LINE
  8
_0-3_zubanwaku
  6
CONTINUOUS
 62
    7
 10
220.46079
 20
70.096615
 11
220.46079
 21
43.096615
  0
LINE
  8
_0-3_zubanwaku
  6
CONTINUOUS
 62
    7
 10
202.46078999999997
 20
52.096615
 11
326.96079000000003
 21
52.096615
  0
LINE
  8
_0-3_zubanwaku
  6
CONTINUOUS
 62
    7
 10
289.46079000000003
 20
70.096615
 11
289.46079000000003
 21
52.096615
  0
LINE
  8
_0-6_sumpo
  6
CONTINUOUS
 62
    7
 10
123.525306
 20
183.85014699999999
 11
123.525306
 21
183.84914700000002
  0
LINE
  8
_0-6_sumpo
  6
CONTINUOUS
 62
    7
 10
161.025306
 20
187.82514700000002
 11
161.025306
 21
187.82414700000001
  0
ARC
  8
_0-4_fuzoku
  6
CONTINUOUS
 62
    3
 10
94.027887000000007
 20
162.00014699999997
 40
2.0000000000000049
 50
24.146847999999999
 51
74.259450999999999
  0
ARC
  8
_0-2_gaikei
  6
CONTINUOUS
 62
    7
 10
85.802886999999998
 20
103.99858500000001
 40
0.75
 50
270
 51
0
  0
ARC
  8
_0-4_fuzoku
  6
CONTINUOUS
 62
    3
 10
98.377887000000001
 20
162.00014699999997
 40
1.9999999999999991
 50
105.740549
 51
155.85315199999997
  0
CIRCLE
  8
_0-4_fuzoku
  6
CONTINUOUS
 62
    3
 10
89.677886999999998
 20
188.65014699999995
 40
1.5
  0
ARC
  8
_0-4_fuzoku
  6
CONTINUOUS
 62
    3
 10
80.97788700000001
 20
188.65014699999995
 40
2.0000000000000049
 50
24.146847999999999
 51
74.259450999999999
  0
ARC
  8
_0-4_fuzoku
  6
CONTINUOUS
 62
    3
 10
80.97788700000001
 20
162.00014699999997
 40
1.9999999999999947
 50
285.74054899999999
 51
335.85315200000002
  0
CIRCLE
  8
_0-4_fuzoku
  6
CONTINUOUS
 62
    3
 10
85.327887000000004
 20
188.65014699999995
 40
1.5
  0
CIRCLE
  8
_0-2_gaikei
  6
CONTINUOUS
 62
    7
 10
90.177886999999998
 20
175.32514700000002
 40
1
  0
CIRCLE
  8
_0-4_fuzoku
  6
CONTINUOUS
 62
    3
 10
89.677886999999998
 20
162.00014699999997
 40
1.5
  0
ARC
  8
_0-4_fuzoku
  6
CONTINUOUS
 62
    3
 10
98.377887000000001
 20
162.00014699999997
 40
2.0000000000000049
 50
204.14684800000001
 51
254.25945100000001
  0
ARC
  8
_0-4_fuzoku
  6
CONTINUOUS
 62
    3
 10
85.327887000000004
 20
162.00014699999997
 40
2.0000000000000049
 50
204.14684800000001
 51
254.25945100000001
  0
ARC
  8
_0-4_fuzoku
  6
CONTINUOUS
 62
    3
 10
94.027887000000007
 20
162.00014699999997
 40
2.0000000000000049
 50
204.14684800000001
 51
254.25945100000001
  0
ARC
  8
_0-4_fuzoku
  6
CONTINUOUS
 62
    3
 10
98.377887000000001
 20
188.65014699999995
 40
2.0000000000000049
 50
204.14684800000001
 51
254.25945100000001
  0
ARC
  8
_0-4_fuzoku
  6
CONTINUOUS
 62
    3
 10
98.377887000000001
 20
188.65014699999995
 40
2.000000000000012
 50
105.740549
 51
155.85315199999997
  0
ARC
  8
_0-4_fuzoku
  6
CONTINUOUS
 62
    3
 10
85.327887000000004
 20
162.00014699999997
 40
2.0000000000000049
 50
24.146847999999999
 51
74.259450999999999
  0
ARC
  8
_0-4_fuzoku
  6
CONTINUOUS
 62
    3
 10
89.677886999999998
 20
162.00014699999997
 40
2.0000000000000049
 50
24.146847999999999
 51
74.259450999999999
  0
ARC
  8
_0-4_fuzoku
  6
CONTINUOUS
 62
    3
 10
94.027887000000007
 20
162.00014699999997
 40
1.9999999999999947
 50
285.74054899999999
 51
335.85315200000002
  0
ARC
  8
_0-4_fuzoku
  6
CONTINUOUS
 62
    3
 10
85.327887000000004
 20
188.65014699999995
 40
2.000000000000012
 50
285.74054899999999
 51
335.85315200000002
  0
CIRCLE
  8
_0-4_fuzoku
  6
CONTINUOUS
 62
    3
 10
98.377887000000001
 20
162.00014699999997
 40
1.5
  0
ARC
  8
_0-4_fuzoku
  6
CONTINUOUS
 62
    3
 10
85.327887000000004
 20
162.00014699999997
 40
1.9999999999999947
 50
285.74054899999999
 51
335.85315200000002
  0
ARC
  8
_0-4_fuzoku
  6
CONTINUOUS
 62
    3
 10
80.97788700000001
 20
162.00014699999997
 40
1.9999999999999991
 50
105.740549
 51
155.85315199999997
  0
ARC
  8
_0-4_fuzoku
  6
CONTINUOUS
 62
    3
 10
80.97788700000001
 20
188.65014699999995
 40
2.000000000000012
 50
105.740549
 51
155.85315199999997
  0
ARC
  8
_0-4_fuzoku
  6
CONTINUOUS
 62
    3
 10
80.97788700000001
 20
162.00014699999997
 40
2.0000000000000049
 50
24.146847999999999
 51
74.259450999999999
  0
ARC
  8
_0-4_fuzoku
  6
CONTINUOUS
 62
    3
 10
85.327887000000004
 20
188.65014699999995
 40
2.000000000000012
 50
105.740549
 51
155.85315199999997
  0
CIRCLE
  8
_0-4_fuzoku
  6
CONTINUOUS
 62
    3
 10
80.97788700000001
 20
162.00014699999997
 40
1.5
  0
ARC
  8
_0-4_fuzoku
  6
CONTINUOUS
 62
    3
 10
94.027887000000007
 20
188.65014699999995
 40
2.0000000000000049
 50
24.146847999999999
 51
74.259450999999999
  0
ARC
  8
_0-4_fuzoku
  6
CONTINUOUS
 62
    3
 10
80.97788700000001
 20
188.65014699999995
 40
2.000000000000012
 50
285.74054899999999
 51
335.85315200000002
  0
ARC
  8
_0-4_fuzoku
  6
CONTINUOUS
 62
    3
 10
98.377887000000001
 20
188.65014699999995
 40
2.000000000000012
 50
285.74054899999999
 51
335.85315200000002
  0
CIRCLE
  8
_0-4_fuzoku
  6
CONTINUOUS
 62
    3
 10
80.97788700000001
 20
188.65014699999995
 40
1.5
  0
ARC
  8
_0-4_fuzoku
  6
CONTINUOUS
 62
    3
 10
85.327887000000004
 20
162.00014699999997
 40
1.9999999999999991
 50
105.740549
 51
155.85315199999997
  0
ARC
  8
_0-4_fuzoku
  6
CONTINUOUS
 62
    3
 10
94.027887000000007
 20
162.00014699999997
 40
1.9999999999999991
 50
105.740549
 51
155.85315199999997
  0
ARC
  8
_0-4_fuzoku
  6
CONTINUOUS
 62
    3
 10
89.677886999999998
 20
188.65014699999995
 40
2.000000000000012
 50
105.740549
 51
155.85315199999997
  0
CIRCLE
  8
_0-4_fuzoku
  6
CONTINUOUS
 62
    3
 10
85.327887000000004
 20
162.00014699999997
 40
1.5
  0
CIRCLE
  8
_0-4_fuzoku
  6
CONTINUOUS
 62
    3
 10
98.377887000000001
 20
188.65014699999995
 40
1.5
  0
ARC
  8
_0-4_fuzoku
  6
CONTINUOUS
 62
    3
 10
94.027887000000007
 20
188.65014699999995
 40
2.0000000000000049
 50
204.14684800000001
 51
254.25945100000001
  0
ARC
  8
_0-4_fuzoku
  6
CONTINUOUS
 62
    3
 10
89.677886999999998
 20
162.00014699999997
 40
2.0000000000000049
 50
204.14684800000001
 51
254.25945100000001
  0
ARC
  8
_0-4_fuzoku
  6
CONTINUOUS
 62
    3
 10
98.377887000000001
 20
162.00014699999997
 40
1.9999999999999947
 50
285.74054899999999
 51
335.85315200000002
  0
ARC
  8
_0-4_fuzoku
  6
CONTINUOUS
 62
    3
 10
94.027887000000007
 20
188.65014699999995
 40
2.000000000000012
 50
285.74054899999999
 51
335.85315200000002
  0
ARC
  8
_0-4_fuzoku
  6
CONTINUOUS
 62
    3
 10
85.327887000000004
 20
188.65014699999995
 40
2.0000000000000049
 50
24.146847999999999
 51
74.259450999999999
  0
ARC
  8
_0-4_fuzoku
  6
CONTINUOUS
 62
    3
 10
89.677886999999998
 20
162.00014699999997
 40
1.9999999999999991
 50
105.740549
 51
155.85315199999997
  0
ARC
  8
_0-4_fuzoku
  6
CONTINUOUS
 62
    3
 10
98.377887000000001
 20
188.65014699999995
 40
2.0000000000000049
 50
24.146847999999999
 51
74.259450999999999
  0
ARC
  8
_0-4_fuzoku
  6
CONTINUOUS
 62
    3
 10
89.677886999999998
 20
188.65014699999995
 40
2.0000000000000049
 50
24.146847999999999
 51
74.259450999999999
  0
ARC
  8
_0-4_fuzoku
  6
CONTINUOUS
 62
    3
 10
85.327887000000004
 20
188.65014699999995
 40
2.0000000000000049
 50
204.14684800000001
 51
254.25945100000001
  0
ARC
  8
_0-4_fuzoku
  6
CONTINUOUS
 62
    3
 10
98.377887000000001
 20
162.00014699999997
 40
2.0000000000000049
 50
24.146847999999999
 51
74.259450999999999
  0
ARC
  8
_0-4_fuzoku
  6
CONTINUOUS
 62
    3
 10
80.97788700000001
 20
162.00014699999997
 40
2.0000000000000049
 50
204.14684800000001
 51
254.25945100000001
  0
ARC
  8
_0-4_fuzoku
  6
CONTINUOUS
 62
    3
 10
80.97788700000001
 20
188.65014699999995
 40
2.0000000000000049
 50
204.14684800000001
 51
254.25945100000001
  0
CIRCLE
  8
_0-4_fuzoku
  6
CONTINUOUS
 62
    3
 10
94.027887000000007
 20
162.00014699999997
 40
1.5
  0
CIRCLE
  8
_0-4_fuzoku
  6
CONTINUOUS
 62
    3
 10
94.027887000000007
 20
188.65014699999995
 40
1.5
  0
ARC
  8
_0-4_fuzoku
  6
CONTINUOUS
 62
    3
 10
89.677886999999998
 20
162.00014699999997
 40
1.9999999999999947
 50
285.74054899999999
 51
335.85315200000002
  0
ARC
  8
_0-4_fuzoku
  6
CONTINUOUS
 62
    3
 10
89.677886999999998
 20
188.65014699999995
 40
2.000000000000012
 50
285.74054899999999
 51
335.85315200000002
  0
ARC
  8
_0-4_fuzoku
  6
CONTINUOUS
 62
    3
 10
89.677886999999998
 20
188.65014699999995
 40
2.0000000000000049
 50
204.14684800000001
 51
254.25945100000001
  0
ARC
  8
_0-2_gaikei
  6
CONTINUOUS
 62
    7
 10
93.552886999999998
 20
103.99858500000001
 40
0.749999999999943
 50
180
 51
270
  0
ARC
  8
_0-2_gaikei
  6
CONTINUOUS
 62
    7
 10
150.02530599999997
 20
157.82514700000002
 40
1.0500000000000109
 50
180
 51
0
  0
ARC
  8
_0-4_fuzoku
  6
CONTINUOUS
 62
    3
 10
94.027887000000007
 20
188.65014699999995
 40
2.000000000000012
 50
105.740549
 51
155.85315199999997
  0
LINE
  8
_0-4_fuzoku
  6
CONTINUOUS
 62
    3
 10
89.52789199998665
 20
138.97011163609145
 11
89.271003536589959
 21
138.92696978596817
  0
LINE
  8
_0-4_fuzoku
  6
CONTINUOUS
 62
    3
 10
89.271003536589959
 20
138.92696978596817
 11
89.026478173258482
 21
138.84498473947917
  0
LINE
  8
_0-4_fuzoku
  6
CONTINUOUS
 62
    3
 10
89.026478173258482
 20
138.84498473947917
 11
88.801745689421224
 21
138.72664757077561
  0
LINE
  8
_0-4_fuzoku
  6
CONTINUOUS
 62
    3
 10
88.801745689421224
 20
138.72664757077561
 11
88.603634467879488
 21
138.57555389484705
  0
LINE
  8
_0-4_fuzoku
  6
CONTINUOUS
 62
    3
 10
88.603634467879488
 20
138.57555389484705
 11
88.438164017850681
 21
138.39629461657947
  0
LINE
  8
_0-4_fuzoku
  6
CONTINUOUS
 62
    3
 10
88.438164017850681
 20
138.39629461657947
 11
88.310362075226863
 21
138.19431643843345
  0
LINE
  8
_0-4_fuzoku
  6
CONTINUOUS
 62
    3
 10
88.310362075226863
 20
138.19431643843345
 11
88.224111837363751
 21
137.97575636514611
  0
LINE
  8
_0-4_fuzoku
  6
CONTINUOUS
 62
    3
 10
88.224111837363751
 20
137.97575636514611
 11
88.182033974094082
 21
137.74725523394753
  0
LINE
  8
_0-4_fuzoku
  6
CONTINUOUS
 62
    3
 10
88.182033974094082
 20
137.74725523394753
 11
88.177888174929464
 21
137.64857479367825
  0
LINE
  8
_0-4_fuzoku
  6
CONTINUOUS
 62
    3
 10
82.477892000000324
 20
137.64858100000001
 11
82.455103629518632
 21
137.87921877309549
  0
LINE
  8
_0-4_fuzoku
  6
CONTINUOUS
 62
    3
 10
82.455103629518632
 20
137.87921877309549
 11
82.387430931179168
 21
138.10284873416381
  0
LINE
  8
_0-4_fuzoku
  6
CONTINUOUS
 62
    3
 10
82.387430931179168
 20
138.10284873416381
 11
82.276930105676939
 21
138.31267600000015
  0
LINE
  8
_0-4_fuzoku
  6
CONTINUOUS
 62
    3
 10
82.276930105676939
 20
138.31267600000015
 11
82.126958664678725
 21
138.50232507530976
  0
LINE
  8
_0-4_fuzoku
  6
CONTINUOUS
 62
    3
 10
82.126958664678725
 20
138.50232507530976
 11
81.94207341453
 21
138.66603356890644
  0
LINE
  8
_0-4_fuzoku
  6
CONTINUOUS
 62
    3
 10
81.94207341453
 20
138.66603356890644
 11
81.727892000000168
 21
138.79882728105272
  0
LINE
  8
_0-4_fuzoku
  6
CONTINUOUS
 62
    3
 10
81.727892000000168
 20
138.79882728105272
 11
81.490922214988615
 21
138.89667134200192
  0
LINE
  8
_0-4_fuzoku
  6
CONTINUOUS
 62
    3
 10
81.490922214988615
 20
138.89667134200192
 11
81.238364266500454
 21
138.95659280947359
  0
LINE
  8
_0-4_fuzoku
  6
CONTINUOUS
 62
    3
 10
81.238364266500454
 20
138.95659280947359
 11
81.127892000000287
 21
138.97011336409091
  0
LINE
  8
_0-4_fuzoku
  6
CONTINUOUS
 62
    3
 10
86.827892000000332
 20
137.64858100000001
 11
86.805103629518641
 21
137.87921877309549
  0
LINE
  8
_0-4_fuzoku
  6
CONTINUOUS
 62
    3
 10
86.805103629518641
 20
137.87921877309549
 11
86.737430931179176
 21
138.10284873416381
  0
LINE
  8
_0-4_fuzoku
  6
CONTINUOUS
 62
    3
 10
86.737430931179176
 20
138.10284873416381
 11
86.626930105676934
 21
138.31267600000015
  0
LINE
  8
_0-4_fuzoku
  6
CONTINUOUS
 62
    3
 10
86.626930105676934
 20
138.31267600000015
 11
86.476958664678733
 21
138.50232507530976
  0
LINE
  8
_0-4_fuzoku
  6
CONTINUOUS
 62
    3
 10
86.476958664678733
 20
138.50232507530976
 11
86.292073414530023
 21
138.66603356890641
  0
LINE
  8
_0-4_fuzoku
  6
CONTINUOUS
 62
    3
 10
86.292073414530023
 20
138.66603356890641
 11
86.077892000000176
 21
138.79882728105272
  0
LINE
  8
_0-4_fuzoku
  6
CONTINUOUS
 62
    3
 10
86.077892000000176
 20
138.79882728105272
 11
85.840922214988609
 21
138.89667134200192
  0
LINE
  8
_0-4_fuzoku
  6
CONTINUOUS
 62
    3
 10
85.840922214988609
 20
138.89667134200192
 11
85.588364266500463
 21
138.95659280947359
  0
LINE
  8
_0-4_fuzoku
  6
CONTINUOUS
 62
    3
 10
85.588364266500463
 20
138.95659280947359
 11
85.477892000000296
 21
138.97011336409091
  0
LINE
  8
_0-4_fuzoku
  6
CONTINUOUS
 62
    3
 10
93.877891999986673
 20
138.97011163609145
 11
93.621003536589967
 21
138.92696978596817
  0
LINE
  8
_0-4_fuzoku
  6
CONTINUOUS
 62
    3
 10
93.621003536589967
 20
138.92696978596817
 11
93.376478173258491
 21
138.84498473947917
  0
LINE
  8
_0-4_fuzoku
  6
CONTINUOUS
 62
    3
 10
93.376478173258491
 20
138.84498473947917
 11
93.151745689421233
 21
138.72664757077561
  0
LINE
  8
_0-4_fuzoku
  6
CONTINUOUS
 62
    3
 10
93.151745689421233
 20
138.72664757077561
 11
92.953634467879496
 21
138.57555389484705
  0
LINE
  8
_0-4_fuzoku
  6
CONTINUOUS
 62
    3
 10
92.953634467879496
 20
138.57555389484705
 11
92.788164017850704
 21
138.39629461657947
  0
LINE
  8
_0-4_fuzoku
  6
CONTINUOUS
 62
    3
 10
92.788164017850704
 20
138.39629461657947
 11
92.660362075226885
 21
138.19431643843345
  0
LINE
  8
_0-4_fuzoku
  6
CONTINUOUS
 62
    3
 10
92.660362075226885
 20
138.19431643843345
 11
92.574111837363759
 21
137.97575636514611
  0
LINE
  8
_0-4_fuzoku
  6
CONTINUOUS
 62
    3
 10
92.574111837363759
 20
137.97575636514611
 11
92.532033974094091
 21
137.74725523394753
  0
LINE
  8
_0-4_fuzoku
  6
CONTINUOUS
 62
    3
 10
92.532033974094091
 20
137.74725523394753
 11
92.527888174929473
 21
137.64857479367825
  0
LINE
  8
_0-4_fuzoku
  6
CONTINUOUS
 62
    3
 10
95.52789199999981
 20
137.64858100000001
 11
95.505103629518132
 21
137.87921877309543
  0
LINE
  8
_0-4_fuzoku
  6
CONTINUOUS
 62
    3
 10
95.505103629518132
 20
137.87921877309543
 11
95.437430931178682
 21
138.10284873416367
  0
LINE
  8
_0-4_fuzoku
  6
CONTINUOUS
 62
    3
 10
95.437430931178682
 20
138.10284873416367
 11
95.326930105676496
 21
138.31267599999993
  0
LINE
  8
_0-4_fuzoku
  6
CONTINUOUS
 62
    3
 10
95.326930105676496
 20
138.31267599999993
 11
95.176958664678324
 21
138.50232507530947
  0
LINE
  8
_0-4_fuzoku
  6
CONTINUOUS
 62
    3
 10
95.176958664678324
 20
138.50232507530947
 11
94.992073414529685
 21
138.66603356890607
  0
LINE
  8
_0-4_fuzoku
  6
CONTINUOUS
 62
    3
 10
94.992073414529685
 20
138.66603356890607
 11
94.777891999999909
 21
138.7988272810523
  0
LINE
  8
_0-4_fuzoku
  6
CONTINUOUS
 62
    3
 10
94.777891999999909
 20
138.7988272810523
 11
94.540922214988441
 21
138.89667134200147
  0
LINE
  8
_0-4_fuzoku
  6
CONTINUOUS
 62
    3
 10
94.540922214988441
 20
138.89667134200147
 11
94.288364266500366
 21
138.95659280947311
  0
LINE
  8
_0-4_fuzoku
  6
CONTINUOUS
 62
    3
 10
94.288364266500366
 20
138.95659280947311
 11
94.177891999999886
 21
138.97011336409048
  0
LINE
  8
_0-4_fuzoku
  6
CONTINUOUS
 62
    3
 10
85.17789199998667
 20
138.97011163609145
 11
84.921003536589964
 21
138.92696978596817
  0
LINE
  8
_0-4_fuzoku
  6
CONTINUOUS
 62
    3
 10
84.921003536589964
 20
138.92696978596817
 11
84.676478173258488
 21
138.84498473947917
  0
LINE
  8
_0-4_fuzoku
  6
CONTINUOUS
 62
    3
 10
84.676478173258488
 20
138.84498473947917
 11
84.45174568942123
 21
138.72664757077561
  0
LINE
  8
_0-4_fuzoku
  6
CONTINUOUS
 62
    3
 10
84.45174568942123
 20
138.72664757077561
 11
84.253634467879493
 21
138.57555389484705
  0
LINE
  8
_0-4_fuzoku
  6
CONTINUOUS
 62
    3
 10
84.253634467879493
 20
138.57555389484705
 11
84.088164017850701
 21
138.39629461657947
  0
LINE
  8
_0-4_fuzoku
  6
CONTINUOUS
 62
    3
 10
84.088164017850701
 20
138.39629461657947
 11
83.960362075226882
 21
138.19431643843345
  0
LINE
  8
_0-4_fuzoku
  6
CONTINUOUS
 62
    3
 10
83.960362075226882
 20
138.19431643843345
 11
83.874111837363756
 21
137.97575636514611
  0
LINE
  8
_0-4_fuzoku
  6
CONTINUOUS
 62
    3
 10
83.874111837363756
 20
137.97575636514611
 11
83.832033974094088
 21
137.74725523394753
  0
LINE
  8
_0-4_fuzoku
  6
CONTINUOUS
 62
    3
 10
83.832033974094088
 20
137.74725523394753
 11
83.82788817492947
 21
137.64857479367825
  0
LINE
  8
_0-4_fuzoku
  6
CONTINUOUS
 62
    3
 10
91.177892000000327
 20
137.64858100000001
 11
91.155103629518635
 21
137.87921877309549
  0
LINE
  8
_0-4_fuzoku
  6
CONTINUOUS
 62
    3
 10
91.155103629518635
 20
137.87921877309549
 11
91.087430931179171
 21
138.10284873416381
  0
LINE
  8
_0-4_fuzoku
  6
CONTINUOUS
 62
    3
 10
91.087430931179171
 20
138.10284873416381
 11
90.976930105676942
 21
138.31267600000015
  0
LINE
  8
_0-4_fuzoku
  6
CONTINUOUS
 62
    3
 10
90.976930105676942
 20
138.31267600000015
 11
90.826958664678727
 21
138.50232507530976
  0
LINE
  8
_0-4_fuzoku
  6
CONTINUOUS
 62
    3
 10
90.826958664678727
 20
138.50232507530976
 11
90.642073414530017
 21
138.66603356890644
  0
LINE
  8
_0-4_fuzoku
  6
CONTINUOUS
 62
    3
 10
90.642073414530017
 20
138.66603356890644
 11
90.427892000000156
 21
138.79882728105272
  0
LINE
  8
_0-4_fuzoku
  6
CONTINUOUS
 62
    3
 10
90.427892000000156
 20
138.79882728105272
 11
90.190922214988618
 21
138.89667134200192
  0
LINE
  8
_0-4_fuzoku
  6
CONTINUOUS
 62
    3
 10
90.190922214988618
 20
138.89667134200192
 11
89.938364266500457
 21
138.95659280947359
  0
LINE
  8
_0-4_fuzoku
  6
CONTINUOUS
 62
    3
 10
89.938364266500457
 20
138.95659280947359
 11
89.82789200000029
 21
138.97011336409091
  0
LINE
  8
_0-4_fuzoku
  6
CONTINUOUS
 62
    3
 10
80.827891999986662
 20
138.97011163609145
 11
80.571003536589956
 21
138.92696978596817
  0
LINE
  8
_0-4_fuzoku
  6
CONTINUOUS
 62
    3
 10
80.571003536589956
 20
138.92696978596817
 11
80.326478173258465
 21
138.84498473947917
  0
LINE
  8
_0-4_fuzoku
  6
CONTINUOUS
 62
    3
 10
80.326478173258465
 20
138.84498473947917
 11
80.101745689421222
 21
138.72664757077561
  0
LINE
  8
_0-4_fuzoku
  6
CONTINUOUS
 62
    3
 10
80.101745689421222
 20
138.72664757077561
 11
79.903634467879485
 21
138.57555389484705
  0
LINE
  8
_0-4_fuzoku
  6
CONTINUOUS
 62
    3
 10
79.903634467879485
 20
138.57555389484705
 11
79.738164017850693
 21
138.39629461657947
  0
LINE
  8
_0-4_fuzoku
  6
CONTINUOUS
 62
    3
 10
79.738164017850693
 20
138.39629461657947
 11
79.610362075226874
 21
138.19431643843345
  0
LINE
  8
_0-4_fuzoku
  6
CONTINUOUS
 62
    3
 10
79.610362075226874
 20
138.19431643843345
 11
79.524111837363748
 21
137.97575636514611
  0
LINE
  8
_0-4_fuzoku
  6
CONTINUOUS
 62
    3
 10
79.524111837363748
 20
137.97575636514611
 11
79.482033974094065
 21
137.74725523394753
  0
LINE
  8
_0-4_fuzoku
  6
CONTINUOUS
 62
    3
 10
79.482033974094065
 20
137.74725523394753
 11
79.477888174929461
 21
137.64857479367825
  0
LINE
  8
_0-4_fuzoku
  6
CONTINUOUS
 62
    3
 10
98.227891999986667
 20
138.97011163609145
 11
97.971003536589961
 21
138.92696978596817
  0
LINE
  8
_0-4_fuzoku
  6
CONTINUOUS
 62
    3
 10
97.971003536589961
 20
138.92696978596817
 11
97.726478173258485
 21
138.84498473947917
  0
LINE
  8
_0-4_fuzoku
  6
CONTINUOUS
 62
    3
 10
97.726478173258485
 20
138.84498473947917
 11
97.501745689421227
 21
138.72664757077561
  0
LINE
  8
_0-4_fuzoku
  6
CONTINUOUS
 62
    3
 10
97.501745689421227
 20
138.72664757077561
 11
97.30363446787949
 21
138.57555389484705
  0
LINE
  8
_0-4_fuzoku
  6
CONTINUOUS
 62
    3
 10
97.30363446787949
 20
138.57555389484705
 11
97.138164017850698
 21
138.39629461657947
  0
LINE
  8
_0-4_fuzoku
  6
CONTINUOUS
 62
    3
 10
97.138164017850698
 20
138.39629461657947
 11
97.01036207522688
 21
138.19431643843345
  0
LINE
  8
_0-4_fuzoku
  6
CONTINUOUS
 62
    3
 10
97.01036207522688
 20
138.19431643843345
 11
96.924111837363753
 21
137.97575636514611
  0
LINE
  8
_0-4_fuzoku
  6
CONTINUOUS
 62
    3
 10
96.924111837363753
 20
137.97575636514611
 11
96.882033974094085
 21
137.74725523394753
  0
LINE
  8
_0-4_fuzoku
  6
CONTINUOUS
 62
    3
 10
96.882033974094085
 20
137.74725523394753
 11
96.877888174929467
 21
137.64857479367825
  0
LINE
  8
_0-4_fuzoku
  6
CONTINUOUS
 62
    3
 10
99.877891999999804
 20
137.64858100000001
 11
99.855103629518126
 21
137.87921877309543
  0
LINE
  8
_0-4_fuzoku
  6
CONTINUOUS
 62
    3
 10
99.855103629518126
 20
137.87921877309543
 11
99.787430931178676
 21
138.10284873416367
  0
LINE
  8
_0-4_fuzoku
  6
CONTINUOUS
 62
    3
 10
99.787430931178676
 20
138.10284873416367
 11
99.67693010567649
 21
138.31267599999993
  0
LINE
  8
_0-4_fuzoku
  6
CONTINUOUS
 62
    3
 10
99.67693010567649
 20
138.31267599999993
 11
99.526958664678318
 21
138.50232507530947
  0
LINE
  8
_0-4_fuzoku
  6
CONTINUOUS
 62
    3
 10
99.526958664678318
 20
138.50232507530947
 11
99.342073414529679
 21
138.66603356890607
  0
LINE
  8
_0-4_fuzoku
  6
CONTINUOUS
 62
    3
 10
99.342073414529679
 20
138.66603356890607
 11
99.127891999999903
 21
138.7988272810523
  0
LINE
  8
_0-4_fuzoku
  6
CONTINUOUS
 62
    3
 10
99.127891999999903
 20
138.7988272810523
 11
98.890922214988436
 21
138.89667134200147
  0
LINE
  8
_0-4_fuzoku
  6
CONTINUOUS
 62
    3
 10
98.890922214988436
 20
138.89667134200147
 11
98.638364266500361
 21
138.95659280947311
  0
LINE
  8
_0-4_fuzoku
  6
CONTINUOUS
 62
    3
 10
98.638364266500361
 20
138.95659280947311
 11
98.527891999999881
 21
138.97011336409048
  0
INSERT
  2
-000-DimnDraft3D1
  8
_0-6_sumpo
 10
39.800000000000004
 20
27.450000000000003
 41
1
 42
1
 50
0
  0
INSERT
  2
-001-DimnDraft3D2
  8
_0-6_sumpo
 10
39.800000000000004
 20
27.450000000000003
 41
1
 42
1
 50
0
  0
INSERT
  2
-002-DimnDraft3D3
  8
_0-6_sumpo
 10
39.800000000000004
 20
27.450000000000003
 41
1
 42
1
 50
0
  0
INSERT
  2
-003-DimnDraft3D4
  8
_0-6_sumpo
 10
39.800000000000004
 20
27.450000000000003
 41
1
 42
1
 50
0
  0
TEXT
  8
_0-0_0
 62
    7
 10
215.7863173296181
 20
198.87188699332319
 40
3
 41
0.843333333333333
 50
0
  1
型番　：　AD-AS-1BM
  0
TEXT
  8
_0-0_0
 62
    7
 10
215.7863173296181
 20
193.87188699332319
 40
3
 41
0.843333333333333
 50
0
  1
センサ回路数　：　1
  0
TEXT
  8
_0-0_0
 62
    7
 10
215.7863173296181
 20
188.87188699332319
 40
3
 41
0.843333333333333
 50
0
  1
電源電圧　：　AC100～240V
  0
TEXT
  8
_0-0_0
 62
    7
 10
215.7863173296181
 20
183.87188699332319
 40
3
 41
0.843333333333333
 50
0
  1
周波数　：　50/60Hz
  0
TEXT
  8
_0-0_0
 62
    7
 10
215.7863173296181
 20
178.87188699332319
 40
3
 41
0.843333333333333
 50
0
  1
センサ印加電圧　：　AC5.3V（最大値）
  0
TEXT
  8
_0-0_0
 62
    7
 10
215.7863173296181
 20
173.87188699332319
 40
3
 41
0.843333333333333
 50
0
  1
センサ短絡電流　：　0.3mA以下
  0
TEXT
  8
_0-0_0
 62
    7
 10
215.7863173296181
 20
138.87188699332316
 40
3
 41
0.843333333333333
 50
0
  1
消費電力　：　最大3VA
  0
TEXT
  8
_0-0_0
 62
    7
 10
215.7863173296181
 20
128.87188699332324
 40
3
 41
0.843333333333333
 50
0
  1
断線検知機能　：　有
  0
TEXT
  8
_0-0_0
 62
    7
 10
215.7863173296181
 20
123.87188699332324
 40
3
 41
0.843333333333333
 50
0
  1
警報保持機能　：　無
  0
TEXT
  8
_0-0_0
 62
    7
 10
215.7863173296181
 20
118.87188699332324
 40
3
 41
0.843333333333333
 50
0
  1
フェールセーフ機能　：　無
  0
TEXT
  8
_0-0_0
 62
    7
 10
215.7863173296181
 20
113.87188699332324
 40
3
 41
0.843333333333333
 50
0
  1
ブザー設定機能　：　無
  0
TEXT
  8
_0-0_0
 62
    7
 10
215.7863173296181
 20
108.87188699332324
 40
3
 41
0.843333333333333
 50
0
  1
チェック機能　：　無
  0
TEXT
  8
_0-0_0
 62
    7
 10
215.7863173296181
 20
103.87188699332324
 40
3
 41
0.843333333333333
 50
0
  1
取付方法　：　DINレールに取付可能
  0
TEXT
  8
_0-0_0
 62
    7
 10
215.7863173296181
 20
148.87188699332316
 40
3
 41
0.843333333333333
 50
0
  1
警報接点出力最大負荷　：　AC250V 2.0A
  0
TEXT
  8
_0-0_0
 62
    7
 10
215.7863173296181
 20
143.87188699332316
 40
3
 41
0.843333333333333
 50
0
  1
（抵抗負荷）  　　  　　　DC 24V 2.0A
  0
TEXT
  8
_0-5_zubanmoji
 62
    7
 10
206.28543143700355
 20
63.138272155745746
 40
4.5
 41
1.1413
 50
0
  1
名称
  0
TEXT
  8
_0-5_zubanmoji
 62
    7
 10
206.28543143700355
 20
53.944004957340965
 40
4.5
 41
1.1413
 50
0
  1
型式
  0
TEXT
  8
_0-5_zubanmoji
 62
    7
 10
206.28543143700355
 20
45.016238257440662
 40
4.5
 41
1.1413
 50
0
  1
図番
  0
TEXT
  8
_0-5_zubanmoji
 62
    7
 10
293.12519584619224
 20
62.919994808855556
 40
4.5
 41
1.1413
 50
0
  1
尺度
  0
TEXT
  8
_0-5_zubanmoji
 62
    7
 10
293.12519584619224
 20
53.889919282808265
 40
4.5
 41
1.1413
 50
0
  1
単位
  0
TEXT
  8
_0-5_zubanmoji
 62
    7
 10
243.37985033491978
 20
53.999659783992868
 40
4.5
 41
1.069
 50
0
  1
AD-AS-1BM
  0
TEXT
  8
_0-5_zubanmoji
 62
    7
 10
227.2664760714357
 20
62.919994808855556
 40
4.5
 41
1.1217999999999999
 50
0
  1
漏水検知器　外形寸法図
  0
TEXT
  8
_0-0_0
 62
    7
 10
215.7863173296181
 20
158.87188699332319
 40
3
 41
0.843333333333333
 50
0
  1
警報接点出力構成　：　漏水警報　1c×1点
  0
TEXT
  8
_0-0_0
 62
    7
 10
215.7863173296181
 20
153.87188699332319
 40
3
 41
0.843333333333333
 50
0
  1
　　　　　　　　　　　断線接点　1a×1点
  0
TEXT
  8
_0-0_0
 62
    7
 10
215.7863173296181
 20
168.87188699332319
 40
3
 41
0.843333333333333
 50
0
  1
漏水警報　：　LEDランプ・点滅（パターン１）
  0
TEXT
  8
_0-0_0
 62
    7
 10
215.7863173296181
 20
163.87188699332319
 40
3
 41
0.843333333333333
 50
0
  1
断線警報　：　LEDランプ・点滅（パターン２）
  0
TEXT
  8
_0-0_0
 62
    7
 10
215.7863173296181
 20
93.871886993323244
 40
3
 41
0.843333333333333
 50
0
  1
重量　：　約135g ±10g
  0
TEXT
  8
_0-0_0
 62
    7
 10
215.7863173296181
 20
98.871886993323244
 40
3
 41
0.843333333333333
 50
0
  1
外形寸法　：　（W）45×（H）72×（D）75  ±1mm
  0
TEXT
  8
_0-0_0
 62
    7
 10
252.4460382513661
 20
204.01236593816006
 40
3
 41
0.843333333333333
 50
0
  1
仕　　　　　様
  0
LINE
  8
_0-0_0
  6
CONTINUOUS
 62
    7
 10
211.80834346436706
 20
82.871886993323244
 11
311.80834346436706
 21
82.871886993323244
  0
LINE
  8
_0-0_0
  6
CONTINUOUS
 62
    7
 10
211.80834346436714
 20
77.871923062482381
 11
211.80834346436706
 21
207.87188699332319
  0
LINE
  8
_0-0_0
  6
CONTINUOUS
 62
    7
 10
311.80834346436706
 20
207.87188699332319
 11
311.80834346436706
 21
77.871820172871708
  0
TEXT
  8
_0-0_0
 62
    7
 10
215.7863173296181
 20
83.871886993323244
 40
3
 41
0.843333333333333
 50
0
  1
適合規格　：　EN61010-1, EN61326-1(工業的電磁環境用途)
  0
LINE
  8
_0-5_zubanmoji
  6
CONTINUOUS
 62
    7
 10
313.46702831536732
 20
65.596615
 11
321.10017835751199
 21
65.596615
  0
TEXT
  8
_0-0_0
 62
    7
 10
215.7863173296181
 20
88.871886993323244
 40
3
 41
0.843333333333333
 50
0
  1
材質・色　：　難燃材 PBT樹脂(ガラス30％) UL94V-0 / グレー
  0
TEXT
  8
_0-5_zubanmoji
 62
    7
 10
255.34987358017085
 20
44.985261472400502
 40
4.5
 41
1.0263
 50
0
  1
TTS-KSW3014-0
  0
TEXT
  8
_0-0_0
 62
    7
 10
215.7863173296181
 20
133.87188699332319
 40
3
 41
0.843333333333333
 50
0
  1
感度調整　：　有（1.8/14/50kΩ） ±30%
  0
ENDSEC
  0
EOF
