  0
SECTION
  2
HEADER
  9
$ACADVER
  1
AC1009
  9
$INSBASE
 10
0
 20
0
 30
0
  9
$EXTMIN
 10
0
 20
0
  9
$EXTMAX
 10
105
 20
74.25
  9
$LIMMIN
 10
0
 20
0
  9
$LIMMAX
 10
105
 20
74.25
  9
$LTSCALE
 40
0.25
  0
ENDSEC
  0
SECTION
  2
TABLES
  0
TABLE
  2
LTYPE
 70
     9
  0
LTYPE
  2
CONTINUOUS
 70
    64
  3
実線
 72
    65
 73
     0
 40
0.0
  0
LTYPE
  2
DASHED1
 70
    64
  3
--  --  --  --  --  --  --  --  
 72
    65
 73
     2
 40
2.5
 49
1.25
 49
-1.25
  0
LTYPE
  2
DASHED2
 70
    64
  3
----    ----    ----    ----    
 72
    65
 73
     2
 40
5.0
 49
2.5
 49
-2.5
  0
LTYPE
  2
DASHED3
 70
    64
  3
------  ------  ------  ------  
 72
    65
 73
     2
 40
5.0
 49
3.75
 49
-1.25
  0
LTYPE
  2
CENTER1
 70
    64
  3
----- - ----- - ----- - ----- - 
 72
    65
 73
     4
 40
10.0
 49
6.25
 49
-1.25
 49
1.25
 49
-1.25
  0
LTYPE
  2
CENTER2
 70
    64
  3
----------  --  ----------  --  
 72
    65
 73
     4
 40
20.0
 49
12.5
 49
-2.5
 49
2.5
 49
-2.5
  0
LTYPE
  2
PHANTOM1
 70
    64
  3
--- - - --- - - --- - - --- - - 
 72
    65
 73
     6
 40
10.0
 49
3.25
 49
-1.25
 49
1.25
 49
-1.25
 49
1.25
 49
-1.25
  0
LTYPE
  2
PHANTOM2
 70
    64
  3
--------  -  -  --------  -  -  
 72
    65
 73
     6
 40
20.0
 49
10.0
 49
-2.5
 49
1.25
 49
-2.5
 49
1.25
 49
-2.5
  0
LTYPE
  2
DOT
 70
    64
  3
-   -   -   -   -   -   -   -   
 72
    65
 73
     2
 40
2.5
 49
0.625
 49
-1.875
  0
LTYPE
  2
DUMMY
 70
    64
  3
ダミー
 72
    65
 73
     0
 40
0.0
  0
LTYPE
  2
RAND1
 70
    64
  3
ランダム線1
 72
    65
 73
     4
 40
10.0
 49
1.0
 49
-2.0
 49
3.0
 49
-4.0
  0
LTYPE
  2
RAND2
 70
    64
  3
ランダム線2
 72
    65
 73
     4
 40
14.0
 49
2.0
 49
-3.0
 49
4.0
 49
-5.0
  0
LTYPE
  2
RAND3
 70
    64
  3
ランダム線3
 72
    65
 73
     4
 40
18.0
 49
3.0
 49
-4.0
 49
5.0
 49
-6.0
  0
LTYPE
  2
RAND4
 70
    64
  3
ランダム線4
 72
    65
 73
     4
 40
22.0
 49
4.0
 49
-5.0
 49
6.0
 49
-7.0
  0
LTYPE
  2
RAND5
 70
    64
  3
ランダム線5
 72
    65
 73
     4
 40
26.0
 49
5.0
 49
-6.0
 49
7.0
 49
-8.0
  0
LTYPE
  2
LONG1
 70
    64
  3
----------  --  ----------  --  
 72
    65
 73
     4
 40
40.0
 49
32.5
 49
-2.5
 49
2.5
 49
-2.5
  0
LTYPE
  2
LONG2
 70
    64
  3
--------  -  -  --------  -  -  
 72
    65
 73
     6
 40
40.0
 49
30.0
 49
-2.5
 49
1.25
 49
-2.5
 49
1.25
 49
-2.5
  0
LTYPE
  2
LONG3
 70
    64
  3
+++++++++++++++..+++++++++++++++
 72
    65
 73
     2
 40
40.0
 49
37.5
 49
-2.5
  0
LTYPE
  2
LONG4
 70
    64
  3
+++++++++++++++..+++++++++++++++
 72
    65
 73
     2
 40
80.0
 49
75.0
 49
-5.0
  0
LTYPE
  2
LONG5
 70
    64
  3
----------  --  ----------  --  
 72
    65
 73
     4
 40
60.0
 49
37.5
 49
-7.5
 49
7.5
 49
-7.5
  0
LTYPE
  2
dashed
 70
   64
  3
-------   -------------   ------
 72
   65
 73
    2
 40
7.5
 49
6
 49
-1.5
  0
LTYPE
  2
dashed_spaced
 70
   64
  3
----        --------        ----
 72
   65
 73
    2
 40
12
 49
6
 49
-6
  0
LTYPE
  2
long_dashed_dotted
 70
   64
  3
------------- --- --------------
 72
   65
 73
    4
 40
15.25
 49
12
 49
-1.5
 49
0.25
 49
-1.5
  0
LTYPE
  2
long_dashed_double-dotted
 70
   64
  3
----------- --- --- ------------
 72
   65
 73
    6
 40
17
 49
12
 49
-1.5
 49
0.25
 49
-1.5
 49
0.25
 49
-1.5
  0
LTYPE
  2
long_dashed_triplicate-dotted
 70
   64
  3
--------- --- --- --- ----------
 72
   65
 73
    8
 40
18.75
 49
12
 49
-1.5
 49
0.25
 49
-1.5
 49
0.25
 49
-1.5
 49
0.25
 49
-1.5
  0
LTYPE
  2
dotted
 70
   64
  3
   -       -       -       -    
 72
   65
 73
    2
 40
1.75
 49
0.25
 49
-1.5
  0
LTYPE
  2
chain
 70
   64
  3
-------------- -- --------------
 72
   65
 73
    4
 40
18.5
 49
12
 49
-1.5
 49
3.5
 49
-1.5
  0
LTYPE
  2
chain_double_dash
 70
   64
  3
------------ -- -- -------------
 72
   65
 73
    6
 40
23.5
 49
12
 49
-1.5
 49
3.5
 49
-1.5
 49
3.5
 49
-1.5
  0
LTYPE
  2
dashed_dotted
 70
   64
  3
-----------     -     ----------
 72
   65
 73
    4
 40
9.25
 49
6
 49
-1.5
 49
0.25
 49
-1.5
  0
LTYPE
  2
double-dashed_dotted
 70
   64
  3
------   -----------   -   -----
 72
   65
 73
    6
 40
16.75
 49
6
 49
-1.5
 49
6
 49
-1.5
 49
0.25
 49
-1.5
  0
LTYPE
  2
dashed_double-dotted
 70
   64
  3
---------    -    -    ---------
 72
   65
 73
    6
 40
11
 49
6
 49
-1.5
 49
0.25
 49
-1.5
 49
0.25
 49
-1.5
  0
LTYPE
  2
double-dashed_double-dotted
 70
   64
  3
-----   ---------   -   -   ----
 72
   65
 73
    8
 40
18.5
 49
6
 49
-1.5
 49
6
 49
-1.5
 49
0.25
 49
-1.5
 49
0.25
 49
-1.5
  0
LTYPE
  2
dashed_triplicate-dotted
 70
   64
  3
-------    -    -    -    ------
 72
   65
 73
    8
 40
12.75
 49
6
 49
-1.5
 49
0.25
 49
-1.5
 49
0.25
 49
-1.5
 49
0.25
 49
-1.5
  0
LTYPE
  2
double-dashed_triplicate-dotted
 70
   64
  3
-----  ---------  -  -  -  -----
 72
   65
 73
   10
 40
20.25
 49
6
 49
-1.5
 49
6
 49
-1.5
 49
0.25
 49
-1.5
 49
0.25
 49
-1.5
 49
0.25
 49
-1.5
  0
LTYPE
  2
undefined
 70
   64
  3
--------------------------------
 72
   65
 73
    0
 40
0
  0
ENDTAB
  0
TABLE
  2
STYLE
  5
3
100
AcDbSymbolTable
 70
     1
  0
STYLE
  5
10
100
AcDbSymbolTableRecord
100
AcDbTextStyleTableRecord
  2
STANDARD
 70
     0
 40
0.0
 41
1.0
 50
0.0
 71
     0
 42
0.2
  3
txt
  4
bigfont.shx
  0
STYLE
  5
26
100
AcDbSymbolTableRecord
100
AcDbTextStyleTableRecord
  2
TATEGAKI
 70
    68
 40
0.0
 41
1.0
 50
0.0
 71
     0
 42
1.0
  3
txt
  4
bigfont.shx
  0
ENDTAB
  0
TABLE
  2
LAYER
 70
    2
  0
LAYER
  2
_0-0_0
 70
   64
 62
    7
  6
CONTINUOUS
  0
LAYER
  2
ADD_LINE
 70
   64
 62
    7
  6
CONTINUOUS
  0
ENDTAB
  0
ENDSEC
  0
SECTION
  2
BLOCKS
  0
BLOCK
  2
-000-GROUP_34
 70
   64
 10
0
 20
0
 30
0
  0
LINE
  8
_0-2__0-2__0-2__0-2__0-b__0-1_gaikei
  6
CONTINUOUS
 62
    7
 10
-92.855827245
 20
-55.659714925000003
 11
-92.859405245000005
 21
-55.660065709999998
  0
LINE
  8
_0-2__0-2__0-2__0-2__0-b__0-1_gaikei
  6
CONTINUOUS
 62
    7
 10
-92.859405245000005
 20
-55.660065709999998
 11
-92.868905179999999
 21
-55.660997084999998
  0
LINE
  8
_0-2__0-2__0-2__0-2__0-b__0-1_gaikei
  6
CONTINUOUS
 62
    7
 10
-92.868905179999999
 20
-55.660997084999998
 11
-92.884699815000005
 21
-55.662545590000001
  0
LINE
  8
_0-2__0-2__0-2__0-2__0-b__0-1_gaikei
  6
CONTINUOUS
 62
    7
 10
-92.884699815000005
 20
-55.662545590000001
 11
-92.908213889999999
 21
-55.664850915000002
  0
LINE
  8
_0-2__0-2__0-2__0-2__0-b__0-1_gaikei
  6
CONTINUOUS
 62
    7
 10
-92.908213889999999
 20
-55.664850915000002
 11
-92.942229170000005
 21
-55.668141075000001
  0
LINE
  8
_0-2__0-2__0-2__0-2__0-b__0-1_gaikei
  6
CONTINUOUS
 62
    7
 10
-92.942229170000005
 20
-55.668141075000001
 11
-92.986620509999995
 21
-55.671984674999997
  0
LINE
  8
_0-2__0-2__0-2__0-2__0-b__0-1_gaikei
  6
CONTINUOUS
 62
    7
 10
-92.986620509999995
 20
-55.671984674999997
 11
-93.039861020000004
 21
-55.675652485000001
  0
LINE
  8
_0-2__0-2__0-2__0-2__0-b__0-1_gaikei
  6
CONTINUOUS
 62
    7
 10
-93.039861020000004
 20
-55.675652485000001
 11
-93.100237949999993
 21
-55.678366674999999
  0
LINE
  8
_0-2__0-2__0-2__0-2__0-b__0-1_gaikei
  6
CONTINUOUS
 62
    7
 10
-93.100237949999993
 20
-55.678366674999999
 11
-93.164682124999999
 21
-55.679186029999997
  0
LINE
  8
_0-2__0-2__0-2__0-2__0-b__0-1_gaikei
  6
CONTINUOUS
 62
    7
 10
-93.164682124999999
 20
-55.679186029999997
 11
-93.229647400000005
 21
-55.677318884999998
  0
LINE
  8
_0-2__0-2__0-2__0-2__0-b__0-1_gaikei
  6
CONTINUOUS
 62
    7
 10
-93.229647400000005
 20
-55.677318884999998
 11
-93.294466740000004
 21
-55.672657100000002
  0
LINE
  8
_0-2__0-2__0-2__0-2__0-b__0-1_gaikei
  6
CONTINUOUS
 62
    7
 10
-93.294466740000004
 20
-55.672657100000002
 11
-93.359016414999999
 21
-55.665202344999997
  0
LINE
  8
_0-2__0-2__0-2__0-2__0-b__0-1_gaikei
  6
CONTINUOUS
 62
    7
 10
-93.359016414999999
 20
-55.665202344999997
 11
-93.423172699999995
 21
-55.654956290000001
  0
LINE
  8
_0-2__0-2__0-2__0-2__0-b__0-1_gaikei
  6
CONTINUOUS
 62
    7
 10
-93.423172699999995
 20
-55.654956290000001
 11
-93.486812850000007
 21
-55.641923145
  0
LINE
  8
_0-2__0-2__0-2__0-2__0-b__0-1_gaikei
  6
CONTINUOUS
 62
    7
 10
-93.486812850000007
 20
-55.641923145
 11
-93.549830119999996
 21
-55.626148405000002
  0
LINE
  8
_0-2__0-2__0-2__0-2__0-b__0-1_gaikei
  6
CONTINUOUS
 62
    7
 10
-93.549830119999996
 20
-55.626148405000002
 11
-93.612130739999998
 21
-55.607711070000001
  0
LINE
  8
_0-2__0-2__0-2__0-2__0-b__0-1_gaikei
  6
CONTINUOUS
 62
    7
 10
-93.612130739999998
 20
-55.607711070000001
 11
-93.673621330000003
 21
-55.586691094999999
  0
LINE
  8
_0-2__0-2__0-2__0-2__0-b__0-1_gaikei
  6
CONTINUOUS
 62
    7
 10
-93.673621330000003
 20
-55.586691094999999
 11
-93.734208504999998
 21
-55.56316846
  0
LINE
  8
_0-2__0-2__0-2__0-2__0-b__0-1_gaikei
  6
CONTINUOUS
 62
    7
 10
-93.734208504999998
 20
-55.56316846
 11
-93.793794469999995
 21
-55.537212760000003
  0
LINE
  8
_0-2__0-2__0-2__0-2__0-b__0-1_gaikei
  6
CONTINUOUS
 62
    7
 10
-93.793794469999995
 20
-55.537212760000003
 11
-93.852261060000004
 21
-55.508845690000001
  0
LINE
  8
_0-2__0-2__0-2__0-2__0-b__0-1_gaikei
  6
CONTINUOUS
 62
    7
 10
-93.852261060000004
 20
-55.508845690000001
 11
-93.909484239999998
 21
-55.478075115000003
  0
LINE
  8
_0-2__0-2__0-2__0-2__0-b__0-1_gaikei
  6
CONTINUOUS
 62
    7
 10
-93.909484239999998
 20
-55.478075115000003
 11
-93.965339975000006
 21
-55.444908904999998
  0
LINE
  8
_0-2__0-2__0-2__0-2__0-b__0-1_gaikei
  6
CONTINUOUS
 62
    7
 10
-93.965339975000006
 20
-55.444908904999998
 11
-94.019704430000004
 21
-55.409355380000001
  0
LINE
  8
_0-2__0-2__0-2__0-2__0-b__0-1_gaikei
  6
CONTINUOUS
 62
    7
 10
-94.019704430000004
 20
-55.409355380000001
 11
-94.072466980000002
 21
-55.371452304999998
  0
LINE
  8
_0-2__0-2__0-2__0-2__0-b__0-1_gaikei
  6
CONTINUOUS
 62
    7
 10
-94.072466980000002
 20
-55.371452304999998
 11
-94.123537880000001
 21
-55.331283984999999
  0
LINE
  8
_0-2__0-2__0-2__0-2__0-b__0-1_gaikei
  6
CONTINUOUS
 62
    7
 10
-94.123537880000001
 20
-55.331283984999999
 11
-94.172829245000003
 21
-55.288938854999998
  0
LINE
  8
_0-2__0-2__0-2__0-2__0-b__0-1_gaikei
  6
CONTINUOUS
 62
    7
 10
-94.172829245000003
 20
-55.288938854999998
 11
-94.220253185000004
 21
-55.244505349999997
  0
LINE
  8
_0-2__0-2__0-2__0-2__0-b__0-1_gaikei
  6
CONTINUOUS
 62
    7
 10
-94.220253185000004
 20
-55.244505349999997
 11
-94.265721735
 21
-55.198071855000002
  0
LINE
  8
_0-2__0-2__0-2__0-2__0-b__0-1_gaikei
  6
CONTINUOUS
 62
    7
 10
-94.265721735
 20
-55.198071855000002
 11
-94.309146325
 21
-55.149726340000001
  0
LINE
  8
_0-2__0-2__0-2__0-2__0-b__0-1_gaikei
  6
CONTINUOUS
 62
    7
 10
-94.309146325
 20
-55.149726340000001
 11
-94.350438075
 21
-55.099556554999999
  0
LINE
  8
_0-2__0-2__0-2__0-2__0-b__0-1_gaikei
  6
CONTINUOUS
 62
    7
 10
-94.350438075
 20
-55.099556554999999
 11
-94.389508090000007
 21
-55.047650259999998
  0
LINE
  8
_0-2__0-2__0-2__0-2__0-b__0-1_gaikei
  6
CONTINUOUS
 62
    7
 10
-94.389508090000007
 20
-55.047650259999998
 11
-94.426267550000006
 21
-54.994095235000003
  0
LINE
  8
_0-2__0-2__0-2__0-2__0-b__0-1_gaikei
  6
CONTINUOUS
 62
    7
 10
-94.426267550000006
 20
-54.994095235000003
 11
-94.460649605
 21
-54.938989024999998
  0
LINE
  8
_0-2__0-2__0-2__0-2__0-b__0-1_gaikei
  6
CONTINUOUS
 62
    7
 10
-94.460649605
 20
-54.938989024999998
 11
-94.492640714999993
 21
-54.88245285
  0
LINE
  8
_0-2__0-2__0-2__0-2__0-b__0-1_gaikei
  6
CONTINUOUS
 62
    7
 10
-94.492640714999993
 20
-54.88245285
 11
-94.522235284999994
 21
-54.824611464999997
  0
LINE
  8
_0-2__0-2__0-2__0-2__0-b__0-1_gaikei
  6
CONTINUOUS
 62
    7
 10
-94.522235284999994
 20
-54.824611464999997
 11
-94.549427704999999
 21
-54.765589615000003
  0
LINE
  8
_0-2__0-2__0-2__0-2__0-b__0-1_gaikei
  6
CONTINUOUS
 62
    7
 10
-94.549427704999999
 20
-54.765589615000003
 11
-94.574210355000005
 21
-54.705511205000001
  0
LINE
  8
_0-2__0-2__0-2__0-2__0-b__0-1_gaikei
  6
CONTINUOUS
 62
    7
 10
-94.574210355000005
 20
-54.705511205000001
 11
-94.596536205000007
 21
-54.644483729999997
  0
LINE
  8
_0-2__0-2__0-2__0-2__0-b__0-1_gaikei
  6
CONTINUOUS
 62
    7
 10
-94.596536205000007
 20
-54.644483729999997
 11
-94.616322374999996
 21
-54.582599739999999
  0
LINE
  8
_0-2__0-2__0-2__0-2__0-b__0-1_gaikei
  6
CONTINUOUS
 62
    7
 10
-94.616322374999996
 20
-54.582599739999999
 11
-94.633484690000003
 21
-54.519951255000002
  0
LINE
  8
_0-2__0-2__0-2__0-2__0-b__0-1_gaikei
  6
CONTINUOUS
 62
    7
 10
-94.633484690000003
 20
-54.519951255000002
 11
-94.647938955000001
 21
-54.456630285000003
  0
LINE
  8
_0-2__0-2__0-2__0-2__0-b__0-1_gaikei
  6
CONTINUOUS
 62
    7
 10
-94.647938955000001
 20
-54.456630285000003
 11
-94.659611659999996
 21
-54.392732965
  0
LINE
  8
_0-2__0-2__0-2__0-2__0-b__0-1_gaikei
  6
CONTINUOUS
 62
    7
 10
-94.659611659999996
 20
-54.392732965
 11
-94.668485349999997
 21
-54.328377115000002
  0
LINE
  8
_0-2__0-2__0-2__0-2__0-b__0-1_gaikei
  6
CONTINUOUS
 62
    7
 10
-94.668485349999997
 20
-54.328377115000002
 11
-94.674560909999997
 21
-54.263687640000001
  0
LINE
  8
_0-2__0-2__0-2__0-2__0-b__0-1_gaikei
  6
CONTINUOUS
 62
    7
 10
-94.674560909999997
 20
-54.263687640000001
 11
-94.677839250000005
 21
-54.198789464999997
  0
LINE
  8
_0-2__0-2__0-2__0-2__0-b__0-1_gaikei
  6
CONTINUOUS
 62
    7
 10
-94.677839250000005
 20
-54.198789464999997
 11
-94.678321264999994
 21
-54.133807490000002
  0
LINE
  8
_0-2__0-2__0-2__0-2__0-b__0-1_gaikei
  6
CONTINUOUS
 62
    7
 10
-94.678321264999994
 20
-54.133807490000002
 11
-94.676007130000002
 21
-54.068866589999999
  0
LINE
  8
_0-2__0-2__0-2__0-2__0-b__0-1_gaikei
  6
CONTINUOUS
 62
    7
 10
-94.676007130000002
 20
-54.068866589999999
 11
-94.670895920000007
 21
-54.004091539999997
  0
LINE
  8
_0-2__0-2__0-2__0-2__0-b__0-1_gaikei
  6
CONTINUOUS
 62
    7
 10
-94.670895920000007
 20
-54.004091539999997
 11
-94.662986614999994
 21
-53.939607115000001
  0
LINE
  8
_0-2__0-2__0-2__0-2__0-b__0-1_gaikei
  6
CONTINUOUS
 62
    7
 10
-94.662986614999994
 20
-53.939607115000001
 11
-94.652278185
 21
-53.875538085000002
  0
LINE
  8
_0-2__0-2__0-2__0-2__0-b__0-1_gaikei
  6
CONTINUOUS
 62
    7
 10
-94.652278185
 20
-53.875538085000002
 11
-94.638775670000001
 21
-53.812006904999997
  0
LINE
  8
_0-2__0-2__0-2__0-2__0-b__0-1_gaikei
  6
CONTINUOUS
 62
    7
 10
-94.638775670000001
 20
-53.812006904999997
 11
-94.622536409999995
 21
-53.749116055000002
  0
LINE
  8
_0-2__0-2__0-2__0-2__0-b__0-1_gaikei
  6
CONTINUOUS
 62
    7
 10
-94.622536409999995
 20
-53.749116055000002
 11
-94.603644399999993
 21
-53.686957829999997
  0
LINE
  8
_0-2__0-2__0-2__0-2__0-b__0-1_gaikei
  6
CONTINUOUS
 62
    7
 10
-94.603644399999993
 20
-53.686957829999997
 11
-94.582183854999997
 21
-53.625624440000003
  0
LINE
  8
_0-2__0-2__0-2__0-2__0-b__0-1_gaikei
  6
CONTINUOUS
 62
    7
 10
-94.582183854999997
 20
-53.625624440000003
 11
-94.558238954999993
 21
-53.56520811
  0
LINE
  8
_0-2__0-2__0-2__0-2__0-b__0-1_gaikei
  6
CONTINUOUS
 62
    7
 10
-94.558238954999993
 20
-53.56520811
 11
-94.531875584999995
 21
-53.505808594999998
  0
LINE
  8
_0-2__0-2__0-2__0-2__0-b__0-1_gaikei
  6
CONTINUOUS
 62
    7
 10
-94.531875584999995
 20
-53.505808594999998
 11
-94.503108174999994
 21
-53.447546825000003
  0
LINE
  8
_0-2__0-2__0-2__0-2__0-b__0-1_gaikei
  6
CONTINUOUS
 62
    7
 10
-94.503108174999994
 20
-53.447546825000003
 11
-94.471942174999995
 21
-53.390547429999998
  0
LINE
  8
_0-2__0-2__0-2__0-2__0-b__0-1_gaikei
  6
CONTINUOUS
 62
    7
 10
-94.471942174999995
 20
-53.390547429999998
 11
-94.438383055000003
 21
-53.334935039999998
  0
LINE
  8
_0-2__0-2__0-2__0-2__0-b__0-1_gaikei
  6
CONTINUOUS
 62
    7
 10
-94.438383055000003
 20
-53.334935039999998
 11
-94.402437939999999
 21
-53.280833534999999
  0
LINE
  8
_0-2__0-2__0-2__0-2__0-b__0-1_gaikei
  6
CONTINUOUS
 62
    7
 10
-94.402437939999999
 20
-53.280833534999999
 11
-94.364153564999995
 21
-53.228349325000003
  0
LINE
  8
_0-2__0-2__0-2__0-2__0-b__0-1_gaikei
  6
CONTINUOUS
 62
    7
 10
-94.364153564999995
 20
-53.228349325000003
 11
-94.323617064999993
 21
-53.177570985000003
  0
LINE
  8
_0-2__0-2__0-2__0-2__0-b__0-1_gaikei
  6
CONTINUOUS
 62
    7
 10
-94.323617064999993
 20
-53.177570985000003
 11
-94.280917400000007
 21
-53.128586294999998
  0
LINE
  8
_0-2__0-2__0-2__0-2__0-b__0-1_gaikei
  6
CONTINUOUS
 62
    7
 10
-94.280917400000007
 20
-53.128586294999998
 11
-94.236143514999995
 21
-53.081483030000001
  0
LINE
  8
_0-2__0-2__0-2__0-2__0-b__0-1_gaikei
  6
CONTINUOUS
 62
    7
 10
-94.236143514999995
 20
-53.081483030000001
 11
-94.189384184999994
 21
-53.036349115
  0
LINE
  8
_0-2__0-2__0-2__0-2__0-b__0-1_gaikei
  6
CONTINUOUS
 62
    7
 10
-94.189384184999994
 20
-53.036349115
 11
-94.140727249999998
 21
-52.993273324999997
  0
LINE
  8
_0-2__0-2__0-2__0-2__0-b__0-1_gaikei
  6
CONTINUOUS
 62
    7
 10
-94.140727249999998
 20
-52.993273324999997
 11
-94.090260244999996
 21
-52.952344705000002
  0
LINE
  8
_0-2__0-2__0-2__0-2__0-b__0-1_gaikei
  6
CONTINUOUS
 62
    7
 10
-94.090260244999996
 20
-52.952344705000002
 11
-94.038070695000002
 21
-52.913652280000001
  0
LINE
  8
_0-2__0-2__0-2__0-2__0-b__0-1_gaikei
  6
CONTINUOUS
 62
    7
 10
-94.038070695000002
 20
-52.913652280000001
 11
-93.984246374999998
 21
-52.87728457
  0
LINE
  8
_0-2__0-2__0-2__0-2__0-b__0-1_gaikei
  6
CONTINUOUS
 62
    7
 10
-93.984246374999998
 20
-52.87728457
 11
-93.928888959999995
 21
-52.843298994999998
  0
LINE
  8
_0-2__0-2__0-2__0-2__0-b__0-1_gaikei
  6
CONTINUOUS
 62
    7
 10
-93.928888959999995
 20
-52.843298994999998
 11
-93.872121475
 21
-52.8117053
  0
LINE
  8
_0-2__0-2__0-2__0-2__0-b__0-1_gaikei
  6
CONTINUOUS
 62
    7
 10
-93.872121475
 20
-52.8117053
 11
-93.814068750000004
 21
-52.782509179999998
  0
LINE
  8
_0-2__0-2__0-2__0-2__0-b__0-1_gaikei
  6
CONTINUOUS
 62
    7
 10
-93.814068750000004
 20
-52.782509179999998
 11
-93.754855599999999
 21
-52.755716325000002
  0
LINE
  8
_0-2__0-2__0-2__0-2__0-b__0-1_gaikei
  6
CONTINUOUS
 62
    7
 10
-93.754855599999999
 20
-52.755716325000002
 11
-93.694604964999996
 21
-52.731337000000003
  0
LINE
  8
_0-2__0-2__0-2__0-2__0-b__0-1_gaikei
  6
CONTINUOUS
 62
    7
 10
-93.694604964999996
 20
-52.731337000000003
 11
-93.633420375
 21
-52.709427974999997
  0
LINE
  8
_0-2__0-2__0-2__0-2__0-b__0-1_gaikei
  6
CONTINUOUS
 62
    7
 10
-93.633420375
 20
-52.709427974999997
 11
-93.571394045000005
 21
-52.690073194999997
  0
LINE
  8
_0-2__0-2__0-2__0-2__0-b__0-1_gaikei
  6
CONTINUOUS
 62
    7
 10
-93.571394045000005
 20
-52.690073194999997
 11
-93.508618045000006
 21
-52.673356945000002
  0
LINE
  8
_0-2__0-2__0-2__0-2__0-b__0-1_gaikei
  6
CONTINUOUS
 62
    7
 10
-93.508618045000006
 20
-52.673356945000002
 11
-93.445184435000002
 21
-52.659363509999999
  0
LINE
  8
_0-2__0-2__0-2__0-2__0-b__0-1_gaikei
  6
CONTINUOUS
 62
    7
 10
-93.445184435000002
 20
-52.659363509999999
 11
-93.381192150000004
 21
-52.648159450000001
  0
LINE
  8
_0-2__0-2__0-2__0-2__0-b__0-1_gaikei
  6
CONTINUOUS
 62
    7
 10
-93.381192150000004
 20
-52.648159450000001
 11
-93.316761929999998
 21
-52.639755039999997
  0
LINE
  8
_0-2__0-2__0-2__0-2__0-b__0-1_gaikei
  6
CONTINUOUS
 62
    7
 10
-93.316761929999998
 20
-52.639755039999997
 11
-93.252018815
 21
-52.634149409999999
  0
LINE
  8
_0-2__0-2__0-2__0-2__0-b__0-1_gaikei
  6
CONTINUOUS
 62
    7
 10
-93.252018815
 20
-52.634149409999999
 11
-93.187087855000001
 21
-52.631341685000002
  0
LINE
  8
_0-2__0-2__0-2__0-2__0-b__0-1_gaikei
  6
CONTINUOUS
 62
    7
 10
-93.187087855000001
 20
-52.631341685000002
 11
-93.122094099999998
 21
-52.631331029999998
  0
LINE
  8
_0-2__0-2__0-2__0-2__0-b__0-1_gaikei
  6
CONTINUOUS
 62
    7
 10
-93.122094099999998
 20
-52.631331029999998
 11
-93.057162515000002
 21
-52.634117504999999
  0
LINE
  8
_0-2__0-2__0-2__0-2__0-b__0-1_gaikei
  6
CONTINUOUS
 62
    7
 10
-93.057162515000002
 20
-52.634117504999999
 11
-92.992418014999998
 21
-52.639702065000002
  0
LINE
  8
_0-2__0-2__0-2__0-2__0-b__0-1_gaikei
  6
CONTINUOUS
 62
    7
 10
-92.992418014999998
 20
-52.639702065000002
 11
-92.927985500000005
 21
-52.648085700000003
  0
LINE
  8
_0-2__0-2__0-2__0-2__0-b__0-1_gaikei
  6
CONTINUOUS
 62
    7
 10
-92.927985500000005
 20
-52.648085700000003
 11
-92.863989869999997
 21
-52.659269405000003
  0
LINE
  8
_0-2__0-2__0-2__0-2__0-b__0-1_gaikei
  6
CONTINUOUS
 62
    7
 10
-92.863989869999997
 20
-52.659269405000003
 11
-92.800551760000005
 21
-52.67324301
  0
LINE
  8
_0-2__0-2__0-2__0-2__0-b__0-1_gaikei
  6
CONTINUOUS
 62
    7
 10
-92.800551760000005
 20
-52.67324301
 11
-92.737770234999999
 21
-52.689939959999997
  0
LINE
  8
_0-2__0-2__0-2__0-2__0-b__0-1_gaikei
  6
CONTINUOUS
 62
    7
 10
-92.737770234999999
 20
-52.689939959999997
 11
-92.675737580000003
 21
-52.709275945000002
  0
LINE
  8
_0-2__0-2__0-2__0-2__0-b__0-1_gaikei
  6
CONTINUOUS
 62
    7
 10
-92.675737580000003
 20
-52.709275945000002
 11
-92.614546075000007
 21
-52.731166655000003
  0
LINE
  8
_0-2__0-2__0-2__0-2__0-b__0-1_gaikei
  6
CONTINUOUS
 62
    7
 10
-92.614546075000007
 20
-52.731166655000003
 11
-92.554288124999999
 21
-52.755528089999999
  0
LINE
  8
_0-2__0-2__0-2__0-2__0-b__0-1_gaikei
  6
CONTINUOUS
 62
    7
 10
-92.554288124999999
 20
-52.755528089999999
 11
-92.495067180000007
 21
-52.782303104999997
  0
LINE
  8
_0-2__0-2__0-2__0-2__0-b__0-1_gaikei
  6
CONTINUOUS
 62
    7
 10
-92.495067180000007
 20
-52.782303104999997
 11
-92.437005959999993
 21
-52.811481415000003
  0
LINE
  8
_0-2__0-2__0-2__0-2__0-b__0-1_gaikei
  6
CONTINUOUS
 62
    7
 10
-92.437005959999993
 20
-52.811481415000003
 11
-92.380229134999993
 21
-52.843057459999997
  0
LINE
  8
_0-2__0-2__0-2__0-2__0-b__0-1_gaikei
  6
CONTINUOUS
 62
    7
 10
-92.380229134999993
 20
-52.843057459999997
 11
-92.324861354999996
 21
-52.877025674999999
  0
LINE
  8
_0-2__0-2__0-2__0-2__0-b__0-1_gaikei
  6
CONTINUOUS
 62
    7
 10
-92.324861354999996
 20
-52.877025674999999
 11
-92.271025495000004
 21
-52.91337644
  0
LINE
  8
_0-2__0-2__0-2__0-2__0-b__0-1_gaikei
  6
CONTINUOUS
 62
    7
 10
-92.271025495000004
 20
-52.91337644
 11
-92.218823284999999
 21
-52.952052369999997
  0
LINE
  8
_0-2__0-2__0-2__0-2__0-b__0-1_gaikei
  6
CONTINUOUS
 62
    7
 10
-92.218823284999999
 20
-52.952052369999997
 11
-92.168342684999999
 21
-52.99296494
  0
LINE
  8
_0-2__0-2__0-2__0-2__0-b__0-1_gaikei
  6
CONTINUOUS
 62
    7
 10
-92.168342684999999
 20
-52.99296494
 11
-92.119671414999999
 21
-53.036025094999999
  0
LINE
  8
_0-2__0-2__0-2__0-2__0-b__0-1_gaikei
  6
CONTINUOUS
 62
    7
 10
-92.119671414999999
 20
-53.036025094999999
 11
-92.0728972
 21
-53.081143785000002
  0
LINE
  8
_0-2__0-2__0-2__0-2__0-b__0-1_gaikei
  6
CONTINUOUS
 62
    7
 10
-92.0728972
 20
-53.081143785000002
 11
-92.028108015000001
 21
-53.128232250000003
  0
LINE
  8
_0-2__0-2__0-2__0-2__0-b__0-1_gaikei
  6
CONTINUOUS
 62
    7
 10
-92.028108015000001
 20
-53.128232250000003
 11
-91.985392645000005
 21
-53.177202725000001
  0
LINE
  8
_0-2__0-2__0-2__0-2__0-b__0-1_gaikei
  6
CONTINUOUS
 62
    7
 10
-91.985392645000005
 20
-53.177202725000001
 11
-91.944840020000001
 21
-53.227967624999998
  0
LINE
  8
_0-2__0-2__0-2__0-2__0-b__0-1_gaikei
  6
CONTINUOUS
 62
    7
 10
-91.944840020000001
 20
-53.227967624999998
 11
-91.906539074999998
 21
-53.280439354999999
  0
LINE
  8
_0-2__0-2__0-2__0-2__0-b__0-1_gaikei
  6
CONTINUOUS
 62
    7
 10
-91.906539074999998
 20
-53.280439354999999
 11
-91.870576929999999
 21
-53.334529529999998
  0
LINE
  8
_0-2__0-2__0-2__0-2__0-b__0-1_gaikei
  6
CONTINUOUS
 62
    7
 10
-91.870576929999999
 20
-53.334529529999998
 11
-91.83700039
 21
-53.390131750000002
  0
LINE
  8
_0-2__0-2__0-2__0-2__0-b__0-1_gaikei
  6
CONTINUOUS
 62
    7
 10
-91.83700039
 20
-53.390131750000002
 11
-91.805816704999998
 21
-53.447121959999997
  0
LINE
  8
_0-2__0-2__0-2__0-2__0-b__0-1_gaikei
  6
CONTINUOUS
 62
    7
 10
-91.805816704999998
 20
-53.447121959999997
 11
-91.777031469999997
 21
-53.505375375
  0
LINE
  8
_0-2__0-2__0-2__0-2__0-b__0-1_gaikei
  6
CONTINUOUS
 62
    7
 10
-91.777031469999997
 20
-53.505375375
 11
-91.750650274999998
 21
-53.564767199999999
  0
LINE
  8
_0-2__0-2__0-2__0-2__0-b__0-1_gaikei
  6
CONTINUOUS
 62
    7
 10
-91.750650274999998
 20
-53.564767199999999
 11
-91.726687435000002
 21
-53.625176285000002
  0
LINE
  8
_0-2__0-2__0-2__0-2__0-b__0-1_gaikei
  6
CONTINUOUS
 62
    7
 10
-91.726687435000002
 20
-53.625176285000002
 11
-91.705208490000004
 21
-53.686502845
  0
LINE
  8
_0-2__0-2__0-2__0-2__0-b__0-1_gaikei
  6
CONTINUOUS
 62
    7
 10
-91.705208490000004
 20
-53.686502845
 11
-91.686297604999993
 21
-53.748654875
  0
LINE
  8
_0-2__0-2__0-2__0-2__0-b__0-1_gaikei
  6
CONTINUOUS
 62
    7
 10
-91.686297604999993
 20
-53.748654875
 11
-91.670038959999999
 21
-53.811540364999999
  0
LINE
  8
_0-2__0-2__0-2__0-2__0-b__0-1_gaikei
  6
CONTINUOUS
 62
    7
 10
-91.670038959999999
 20
-53.811540364999999
 11
-91.656516534999994
 21
-53.875067235000003
  0
LINE
  8
_0-2__0-2__0-2__0-2__0-b__0-1_gaikei
  6
CONTINUOUS
 62
    7
 10
-91.656516534999994
 20
-53.875067235000003
 11
-91.645787674999994
 21
-53.939133105000003
  0
LINE
  8
_0-2__0-2__0-2__0-2__0-b__0-1_gaikei
  6
CONTINUOUS
 62
    7
 10
-91.645787674999994
 20
-53.939133105000003
 11
-91.637857539999999
 21
-54.003615404999998
  0
LINE
  8
_0-2__0-2__0-2__0-2__0-b__0-1_gaikei
  6
CONTINUOUS
 62
    7
 10
-91.637857539999999
 20
-54.003615404999998
 11
-91.632725230000005
 21
-54.068389209999999
  0
LINE
  8
_0-2__0-2__0-2__0-2__0-b__0-1_gaikei
  6
CONTINUOUS
 62
    7
 10
-91.632725230000005
 20
-54.068389209999999
 11
-91.630389835000003
 21
-54.133329605
  0
LINE
  8
_0-2__0-2__0-2__0-2__0-b__0-1_gaikei
  6
CONTINUOUS
 62
    7
 10
-91.630389835000003
 20
-54.133329605
 11
-91.630850545000001
 21
-54.198311685
  0
LINE
  8
_0-2__0-2__0-2__0-2__0-b__0-1_gaikei
  6
CONTINUOUS
 62
    7
 10
-91.630850545000001
 20
-54.198311685
 11
-91.634107659999998
 21
-54.263210614999998
  0
LINE
  8
_0-2__0-2__0-2__0-2__0-b__0-1_gaikei
  6
CONTINUOUS
 62
    7
 10
-91.634107659999998
 20
-54.263210614999998
 11
-91.640162195000002
 21
-54.327901619999999
  0
LINE
  8
_0-2__0-2__0-2__0-2__0-b__0-1_gaikei
  6
CONTINUOUS
 62
    7
 10
-91.640162195000002
 20
-54.327901619999999
 11
-91.649015180000006
 21
-54.392259924999998
  0
LINE
  8
_0-2__0-2__0-2__0-2__0-b__0-1_gaikei
  6
CONTINUOUS
 62
    7
 10
-91.649015180000006
 20
-54.392259924999998
 11
-91.660667625000002
 21
-54.456160754999999
  0
LINE
  8
_0-2__0-2__0-2__0-2__0-b__0-1_gaikei
  6
CONTINUOUS
 62
    7
 10
-91.660667625000002
 20
-54.456160754999999
 11
-91.675102170000002
 21
-54.519486370000003
  0
LINE
  8
_0-2__0-2__0-2__0-2__0-b__0-1_gaikei
  6
CONTINUOUS
 62
    7
 10
-91.675102170000002
 20
-54.519486370000003
 11
-91.692245279999995
 21
-54.582140484999996
  0
LINE
  8
_0-2__0-2__0-2__0-2__0-b__0-1_gaikei
  6
CONTINUOUS
 62
    7
 10
-91.692245279999995
 20
-54.582140484999996
 11
-91.712012744999996
 21
-54.644030895
  0
LINE
  8
_0-2__0-2__0-2__0-2__0-b__0-1_gaikei
  6
CONTINUOUS
 62
    7
 10
-91.712012744999996
 20
-54.644030895
 11
-91.734320345
 21
-54.705065404999999
  0
LINE
  8
_0-2__0-2__0-2__0-2__0-b__0-1_gaikei
  6
CONTINUOUS
 62
    7
 10
-91.734320345
 20
-54.705065404999999
 11
-91.759085119999995
 21
-54.765151295000003
  0
LINE
  8
_0-2__0-2__0-2__0-2__0-b__0-1_gaikei
  6
CONTINUOUS
 62
    7
 10
-91.759085119999995
 20
-54.765151295000003
 11
-91.786259654999995
 21
-54.824181199999998
  0
LINE
  8
_0-2__0-2__0-2__0-2__0-b__0-1_gaikei
  6
CONTINUOUS
 62
    7
 10
-91.786259654999995
 20
-54.824181199999998
 11
-91.815836404999999
 21
-54.882031310000002
  0
LINE
  8
_0-2__0-2__0-2__0-2__0-b__0-1_gaikei
  6
CONTINUOUS
 62
    7
 10
-91.815836404999999
 20
-54.882031310000002
 11
-91.847809909999995
 21
-54.938576959999999
  0
LINE
  8
_0-2__0-2__0-2__0-2__0-b__0-1_gaikei
  6
CONTINUOUS
 62
    7
 10
-91.847809909999995
 20
-54.938576959999999
 11
-91.882174730000003
 21
-54.993693479999997
  0
LINE
  8
_0-2__0-2__0-2__0-2__0-b__0-1_gaikei
  6
CONTINUOUS
 62
    7
 10
-91.882174730000003
 20
-54.993693479999997
 11
-91.918917454999999
 21
-55.047259734999997
  0
LINE
  8
_0-2__0-2__0-2__0-2__0-b__0-1_gaikei
  6
CONTINUOUS
 62
    7
 10
-91.918917454999999
 20
-55.047259734999997
 11
-91.957971194999999
 21
-55.099178305000002
  0
LINE
  8
_0-2__0-2__0-2__0-2__0-b__0-1_gaikei
  6
CONTINUOUS
 62
    7
 10
-91.957971194999999
 20
-55.099178305000002
 11
-91.999247034999996
 21
-55.149361550000002
  0
LINE
  8
_0-2__0-2__0-2__0-2__0-b__0-1_gaikei
  6
CONTINUOUS
 62
    7
 10
-91.999247034999996
 20
-55.149361550000002
 11
-92.042655960000005
 21
-55.197721864999998
  0
LINE
  8
_0-2__0-2__0-2__0-2__0-b__0-1_gaikei
  6
CONTINUOUS
 62
    7
 10
-92.042655960000005
 20
-55.197721864999998
 11
-92.088108989999995
 21
-55.244171635000001
  0
LINE
  8
_0-2__0-2__0-2__0-2__0-b__0-1_gaikei
  6
CONTINUOUS
 62
    7
 10
-92.088108989999995
 20
-55.244171635000001
 11
-92.135517634999999
 21
-55.288622605
  0
LINE
  8
_0-2__0-2__0-2__0-2__0-b__0-1_gaikei
  6
CONTINUOUS
 62
    7
 10
-92.135517634999999
 20
-55.288622605
 11
-92.184794425000007
 21
-55.330985249999998
  0
LINE
  8
_0-2__0-2__0-2__0-2__0-b__0-1_gaikei
  6
CONTINUOUS
 62
    7
 10
-92.184794425000007
 20
-55.330985249999998
 11
-92.23585199
 21
-55.371169909999999
  0
LINE
  8
_0-2__0-2__0-2__0-2__0-b__0-1_gaikei
  6
CONTINUOUS
 62
    7
 10
-92.23585199
 20
-55.371169909999999
 11
-92.288602969999999
 21
-55.409086909999999
  0
LINE
  8
_0-2__0-2__0-2__0-2__0-b__0-1_gaikei
  6
CONTINUOUS
 62
    7
 10
-92.288602969999999
 20
-55.409086909999999
 11
-92.342958049999993
 21
-55.444651004999997
  0
LINE
  8
_0-2__0-2__0-2__0-2__0-b__0-1_gaikei
  6
CONTINUOUS
 62
    7
 10
-92.342958049999993
 20
-55.444651004999997
 11
-92.398805920000001
 21
-55.477826780000001
  0
LINE
  8
_0-2__0-2__0-2__0-2__0-b__0-1_gaikei
  6
CONTINUOUS
 62
    7
 10
-92.398805920000001
 20
-55.477826780000001
 11
-92.456021344999996
 21
-55.508610339999997
  0
LINE
  8
_0-2__0-2__0-2__0-2__0-b__0-1_gaikei
  6
CONTINUOUS
 62
    7
 10
-92.456021344999996
 20
-55.508610339999997
 11
-92.514478874999995
 21
-55.536998294999997
  0
LINE
  8
_0-2__0-2__0-2__0-2__0-b__0-1_gaikei
  6
CONTINUOUS
 62
    7
 10
-92.514478874999995
 20
-55.536998294999997
 11
-92.574053065000001
 21
-55.562987235000001
  0
LINE
  8
_0-2__0-2__0-2__0-2__0-b__0-1_gaikei
  6
CONTINUOUS
 62
    7
 10
-92.574053065000001
 20
-55.562987235000001
 11
-92.634624939999995
 21
-55.586557749999997
  0
LINE
  8
_0-2__0-2__0-2__0-2__0-b__0-1_gaikei
  6
CONTINUOUS
 62
    7
 10
-92.634624939999995
 20
-55.586557749999997
 11
-92.696098469999995
 21
-55.607633755000002
  0
LINE
  8
_0-2__0-2__0-2__0-2__0-b__0-1_gaikei
  6
CONTINUOUS
 62
    7
 10
-92.696098469999995
 20
-55.607633755000002
 11
-92.758382685000001
 21
-55.626126605000003
  0
LINE
  8
_0-2__0-2__0-2__0-2__0-b__0-1_gaikei
  6
CONTINUOUS
 62
    7
 10
-92.758382685000001
 20
-55.626126605000003
 11
-92.821386634999996
 21
-55.641947664999996
  0
LINE
  8
_0-2__0-2__0-2__0-2__0-b__0-1_gaikei
  6
CONTINUOUS
 62
    7
 10
-92.821386634999996
 20
-55.641947664999996
 11
-92.885018955000007
 21
-55.655009354999997
  0
LINE
  8
_0-2__0-2__0-2__0-2__0-b__0-1_gaikei
  6
CONTINUOUS
 62
    7
 10
-92.885018955000007
 20
-55.655009354999997
 11
-92.949173454999993
 21
-55.665262839999997
  0
LINE
  8
_0-2__0-2__0-2__0-2__0-b__0-1_gaikei
  6
CONTINUOUS
 62
    7
 10
-92.949173454999993
 20
-55.665262839999997
 11
-93.013725129999997
 21
-55.672708505000003
  0
LINE
  8
_0-2__0-2__0-2__0-2__0-b__0-1_gaikei
  6
CONTINUOUS
 62
    7
 10
-93.013725129999997
 20
-55.672708505000003
 11
-93.078547749999998
 21
-55.677349894999999
  0
LINE
  8
_0-2__0-2__0-2__0-2__0-b__0-1_gaikei
  6
CONTINUOUS
 62
    7
 10
-93.078547749999998
 20
-55.677349894999999
 11
-93.143515094999998
 21
-55.679190560000002
  0
LINE
  8
_0-2__0-2__0-2__0-2__0-b__0-1_gaikei
  6
CONTINUOUS
 62
    7
 10
-93.143515094999998
 20
-55.679190560000002
 11
-93.207972760000004
 21
-55.678340730000002
  0
LINE
  8
_0-2__0-2__0-2__0-2__0-b__0-1_gaikei
  6
CONTINUOUS
 62
    7
 10
-93.207972760000004
 20
-55.678340730000002
 11
-93.268392599999999
 21
-55.675590954999997
  0
LINE
  8
_0-2__0-2__0-2__0-2__0-b__0-1_gaikei
  6
CONTINUOUS
 62
    7
 10
-93.268392599999999
 20
-55.675590954999997
 11
-93.321695145000007
 21
-55.671885664999998
  0
LINE
  8
_0-2__0-2__0-2__0-2__0-b__0-1_gaikei
  6
CONTINUOUS
 62
    7
 10
-93.321695145000007
 20
-55.671885664999998
 11
-93.36616497
 21
-55.668004529999997
  0
LINE
  8
_0-2__0-2__0-2__0-2__0-b__0-1_gaikei
  6
CONTINUOUS
 62
    7
 10
-93.36616497
 20
-55.668004529999997
 11
-93.400282265000001
 21
-55.664677054999999
  0
LINE
  8
_0-2__0-2__0-2__0-2__0-b__0-1_gaikei
  6
CONTINUOUS
 62
    7
 10
-93.400282265000001
 20
-55.664677054999999
 11
-93.423877500000003
 21
-55.662343454999998
  0
LINE
  8
_0-2__0-2__0-2__0-2__0-b__0-1_gaikei
  6
CONTINUOUS
 62
    7
 10
-93.423877500000003
 20
-55.662343454999998
 11
-93.439730670000003
 21
-55.660775555000001
  0
LINE
  8
_0-2__0-2__0-2__0-2__0-b__0-1_gaikei
  6
CONTINUOUS
 62
    7
 10
-93.439730670000003
 20
-55.660775555000001
 11
-93.449281635000006
 21
-55.65983095
  0
LINE
  8
_0-2__0-2__0-2__0-2__0-b__0-1_gaikei
  6
CONTINUOUS
 62
    7
 10
-93.449281635000006
 20
-55.65983095
 11
-93.452904939999996
 21
-55.659472600000001
  0
ENDBLK
  0
BLOCK
  2
-001-GROUP_35
 70
   64
 10
0
 20
0
 30
0
  0
LINE
  8
_0-2__0-2__0-2__0-2__0-b__0-1_gaikei
  6
CONTINUOUS
 62
    7
 10
-93.417575334999995
 20
-55.166697415000002
 11
-93.41475346
 21
-55.167045790000003
  0
LINE
  8
_0-2__0-2__0-2__0-2__0-b__0-1_gaikei
  6
CONTINUOUS
 62
    7
 10
-93.41475346
 20
-55.167045790000003
 11
-93.402670125
 21
-55.168537530000002
  0
LINE
  8
_0-2__0-2__0-2__0-2__0-b__0-1_gaikei
  6
CONTINUOUS
 62
    7
 10
-93.402670125
 20
-55.168537530000002
 11
-93.379547810000005
 21
-55.171392079999997
  0
LINE
  8
_0-2__0-2__0-2__0-2__0-b__0-1_gaikei
  6
CONTINUOUS
 62
    7
 10
-93.379547810000005
 20
-55.171392079999997
 11
-93.340890874999999
 21
-55.176140920000002
  0
LINE
  8
_0-2__0-2__0-2__0-2__0-b__0-1_gaikei
  6
CONTINUOUS
 62
    7
 10
-93.340890874999999
 20
-55.176140920000002
 11
-93.284126784999998
 21
-55.182234190000003
  0
LINE
  8
_0-2__0-2__0-2__0-2__0-b__0-1_gaikei
  6
CONTINUOUS
 62
    7
 10
-93.284126784999998
 20
-55.182234190000003
 11
-93.213034739999998
 21
-55.187325735000002
  0
LINE
  8
_0-2__0-2__0-2__0-2__0-b__0-1_gaikei
  6
CONTINUOUS
 62
    7
 10
-93.213034739999998
 20
-55.187325735000002
 11
-93.133878574999997
 21
-55.188607210000001
  0
LINE
  8
_0-2__0-2__0-2__0-2__0-b__0-1_gaikei
  6
CONTINUOUS
 62
    7
 10
-93.133878574999997
 20
-55.188607210000001
 11
-93.053939560000003
 21
-55.183857609999997
  0
LINE
  8
_0-2__0-2__0-2__0-2__0-b__0-1_gaikei
  6
CONTINUOUS
 62
    7
 10
-93.053939560000003
 20
-55.183857609999997
 11
-92.974569265
 21
-55.172895480000001
  0
LINE
  8
_0-2__0-2__0-2__0-2__0-b__0-1_gaikei
  6
CONTINUOUS
 62
    7
 10
-92.974569265
 20
-55.172895480000001
 11
-92.896263739999995
 21
-55.155782664999997
  0
LINE
  8
_0-2__0-2__0-2__0-2__0-b__0-1_gaikei
  6
CONTINUOUS
 62
    7
 10
-92.896263739999995
 20
-55.155782664999997
 11
-92.819518875
 21
-55.132581494999997
  0
LINE
  8
_0-2__0-2__0-2__0-2__0-b__0-1_gaikei
  6
CONTINUOUS
 62
    7
 10
-92.819518875
 20
-55.132581494999997
 11
-92.744811650000003
 21
-55.103408354999999
  0
LINE
  8
_0-2__0-2__0-2__0-2__0-b__0-1_gaikei
  6
CONTINUOUS
 62
    7
 10
-92.744811650000003
 20
-55.103408354999999
 11
-92.672583639999999
 21
-55.068480979999997
  0
LINE
  8
_0-2__0-2__0-2__0-2__0-b__0-1_gaikei
  6
CONTINUOUS
 62
    7
 10
-92.672583639999999
 20
-55.068480979999997
 11
-92.603272494999999
 21
-55.02802827
  0
LINE
  8
_0-2__0-2__0-2__0-2__0-b__0-1_gaikei
  6
CONTINUOUS
 62
    7
 10
-92.603272494999999
 20
-55.02802827
 11
-92.537315884999998
 21
-54.982279124999998
  0
LINE
  8
_0-2__0-2__0-2__0-2__0-b__0-1_gaikei
  6
CONTINUOUS
 62
    7
 10
-92.537315884999998
 20
-54.982279124999998
 11
-92.475147664999994
 21
-54.931467329999997
  0
LINE
  8
_0-2__0-2__0-2__0-2__0-b__0-1_gaikei
  6
CONTINUOUS
 62
    7
 10
-92.475147664999994
 20
-54.931467329999997
 11
-92.417142459999994
 21
-54.875902789999998
  0
LINE
  8
_0-2__0-2__0-2__0-2__0-b__0-1_gaikei
  6
CONTINUOUS
 62
    7
 10
-92.417142459999994
 20
-54.875902789999998
 11
-92.363628120000001
 21
-54.815955504999998
  0
LINE
  8
_0-2__0-2__0-2__0-2__0-b__0-1_gaikei
  6
CONTINUOUS
 62
    7
 10
-92.363628120000001
 20
-54.815955504999998
 11
-92.314931215000001
 21
-54.751997119999999
  0
LINE
  8
_0-2__0-2__0-2__0-2__0-b__0-1_gaikei
  6
CONTINUOUS
 62
    7
 10
-92.314931215000001
 20
-54.751997119999999
 11
-92.271378319999997
 21
-54.684399280000001
  0
LINE
  8
_0-2__0-2__0-2__0-2__0-b__0-1_gaikei
  6
CONTINUOUS
 62
    7
 10
-92.271378319999997
 20
-54.684399280000001
 11
-92.233295514999995
 21
-54.613533955000001
  0
LINE
  8
_0-2__0-2__0-2__0-2__0-b__0-1_gaikei
  6
CONTINUOUS
 62
    7
 10
-92.233295514999995
 20
-54.613533955000001
 11
-92.200944114999999
 21
-54.53981581
  0
LINE
  8
_0-2__0-2__0-2__0-2__0-b__0-1_gaikei
  6
CONTINUOUS
 62
    7
 10
-92.200944114999999
 20
-54.53981581
 11
-92.174456649999996
 21
-54.463744384999998
  0
LINE
  8
_0-2__0-2__0-2__0-2__0-b__0-1_gaikei
  6
CONTINUOUS
 62
    7
 10
-92.174456649999996
 20
-54.463744384999998
 11
-92.153950440000003
 21
-54.385829274999999
  0
LINE
  8
_0-2__0-2__0-2__0-2__0-b__0-1_gaikei
  6
CONTINUOUS
 62
    7
 10
-92.153950440000003
 20
-54.385829274999999
 11
-92.139542800000001
 21
-54.306580054999998
  0
LINE
  8
_0-2__0-2__0-2__0-2__0-b__0-1_gaikei
  6
CONTINUOUS
 62
    7
 10
-92.139542800000001
 20
-54.306580054999998
 11
-92.131351045000002
 21
-54.226506309999998
  0
LINE
  8
_0-2__0-2__0-2__0-2__0-b__0-1_gaikei
  6
CONTINUOUS
 62
    7
 10
-92.131351045000002
 20
-54.226506309999998
 11
-92.129492075000002
 21
-54.146117554999996
  0
LINE
  8
_0-2__0-2__0-2__0-2__0-b__0-1_gaikei
  6
CONTINUOUS
 62
    7
 10
-92.129492075000002
 20
-54.146117554999996
 11
-92.134014805000007
 21
-54.065911114999999
  0
LINE
  8
_0-2__0-2__0-2__0-2__0-b__0-1_gaikei
  6
CONTINUOUS
 62
    7
 10
-92.134014805000007
 20
-54.065911114999999
 11
-92.144824720000003
 21
-53.98635865
  0
LINE
  8
_0-2__0-2__0-2__0-2__0-b__0-1_gaikei
  6
CONTINUOUS
 62
    7
 10
-92.144824720000003
 20
-53.98635865
 11
-92.161809145000007
 21
-53.907928560000002
  0
LINE
  8
_0-2__0-2__0-2__0-2__0-b__0-1_gaikei
  6
CONTINUOUS
 62
    7
 10
-92.161809145000007
 20
-53.907928560000002
 11
-92.184855389999996
 21
-53.831089245000001
  0
LINE
  8
_0-2__0-2__0-2__0-2__0-b__0-1_gaikei
  6
CONTINUOUS
 62
    7
 10
-92.184855389999996
 20
-53.831089245000001
 11
-92.213849839999995
 21
-53.756308805000003
  0
LINE
  8
_0-2__0-2__0-2__0-2__0-b__0-1_gaikei
  6
CONTINUOUS
 62
    7
 10
-92.213849839999995
 20
-53.756308805000003
 11
-92.248623100000003
 21
-53.684037605
  0
LINE
  8
_0-2__0-2__0-2__0-2__0-b__0-1_gaikei
  6
CONTINUOUS
 62
    7
 10
-92.248623100000003
 20
-53.684037605
 11
-92.288919274999998
 21
-53.614698509999997
  0
LINE
  8
_0-2__0-2__0-2__0-2__0-b__0-1_gaikei
  6
CONTINUOUS
 62
    7
 10
-92.288919274999998
 20
-53.614698509999997
 11
-92.334475025000003
 21
-53.548712010000003
  0
LINE
  8
_0-2__0-2__0-2__0-2__0-b__0-1_gaikei
  6
CONTINUOUS
 62
    7
 10
-92.334475025000003
 20
-53.548712010000003
 11
-92.385027019999995
 21
-53.486498605000001
  0
LINE
  8
_0-2__0-2__0-2__0-2__0-b__0-1_gaikei
  6
CONTINUOUS
 62
    7
 10
-92.385027019999995
 20
-53.486498605000001
 11
-92.440298025000004
 21
-53.428465529999997
  0
LINE
  8
_0-2__0-2__0-2__0-2__0-b__0-1_gaikei
  6
CONTINUOUS
 62
    7
 10
-92.440298025000004
 20
-53.428465529999997
 11
-92.49993096
 21
-53.374943805000001
  0
LINE
  8
_0-2__0-2__0-2__0-2__0-b__0-1_gaikei
  6
CONTINUOUS
 62
    7
 10
-92.49993096
 20
-53.374943805000001
 11
-92.563540239999995
 21
-53.326237274999997
  0
LINE
  8
_0-2__0-2__0-2__0-2__0-b__0-1_gaikei
  6
CONTINUOUS
 62
    7
 10
-92.563540239999995
 20
-53.326237274999997
 11
-92.630740259999996
 21
-53.282649739999997
  0
LINE
  8
_0-2__0-2__0-2__0-2__0-b__0-1_gaikei
  6
CONTINUOUS
 62
    7
 10
-92.630740259999996
 20
-53.282649739999997
 11
-92.701137169999996
 21
-53.244471470000001
  0
LINE
  8
_0-2__0-2__0-2__0-2__0-b__0-1_gaikei
  6
CONTINUOUS
 62
    7
 10
-92.701137169999996
 20
-53.244471470000001
 11
-92.774286959999998
 21
-53.211910435
  0
LINE
  8
_0-2__0-2__0-2__0-2__0-b__0-1_gaikei
  6
CONTINUOUS
 62
    7
 10
-92.774286959999998
 20
-53.211910435
 11
-92.849726794999995
 21
-53.185143680000003
  0
LINE
  8
_0-2__0-2__0-2__0-2__0-b__0-1_gaikei
  6
CONTINUOUS
 62
    7
 10
-92.849726794999995
 20
-53.185143680000003
 11
-92.926993820000007
 21
-53.164347769999999
  0
LINE
  8
_0-2__0-2__0-2__0-2__0-b__0-1_gaikei
  6
CONTINUOUS
 62
    7
 10
-92.926993820000007
 20
-53.164347769999999
 11
-93.00562687
 21
-53.14966038
  0
LINE
  8
_0-2__0-2__0-2__0-2__0-b__0-1_gaikei
  6
CONTINUOUS
 62
    7
 10
-93.00562687
 20
-53.14966038
 11
-93.085167830000003
 21
-53.14114962
  0
LINE
  8
_0-2__0-2__0-2__0-2__0-b__0-1_gaikei
  6
CONTINUOUS
 62
    7
 10
-93.085167830000003
 20
-53.14114962
 11
-93.165158880000007
 21
-53.138876310000001
  0
LINE
  8
_0-2__0-2__0-2__0-2__0-b__0-1_gaikei
  6
CONTINUOUS
 62
    7
 10
-93.165158880000007
 20
-53.138876310000001
 11
-93.245132955000003
 21
-53.142871589999999
  0
LINE
  8
_0-2__0-2__0-2__0-2__0-b__0-1_gaikei
  6
CONTINUOUS
 62
    7
 10
-93.245132955000003
 20
-53.142871589999999
 11
-93.32459815
 21
-53.153086860000002
  0
LINE
  8
_0-2__0-2__0-2__0-2__0-b__0-1_gaikei
  6
CONTINUOUS
 62
    7
 10
-93.32459815
 20
-53.153086860000002
 11
-93.403058439999995
 21
-53.169460299999997
  0
LINE
  8
_0-2__0-2__0-2__0-2__0-b__0-1_gaikei
  6
CONTINUOUS
 62
    7
 10
-93.403058439999995
 20
-53.169460299999997
 11
-93.480017834999998
 21
-53.191929999999999
  0
LINE
  8
_0-2__0-2__0-2__0-2__0-b__0-1_gaikei
  6
CONTINUOUS
 62
    7
 10
-93.480017834999998
 20
-53.191929999999999
 11
-93.554994730000004
 21
-53.220392859999997
  0
LINE
  8
_0-2__0-2__0-2__0-2__0-b__0-1_gaikei
  6
CONTINUOUS
 62
    7
 10
-93.554994730000004
 20
-53.220392859999997
 11
-93.627545304999998
 21
-53.254637549999998
  0
LINE
  8
_0-2__0-2__0-2__0-2__0-b__0-1_gaikei
  6
CONTINUOUS
 62
    7
 10
-93.627545304999998
 20
-53.254637549999998
 11
-93.697231884999994
 21
-53.294435215
  0
LINE
  8
_0-2__0-2__0-2__0-2__0-b__0-1_gaikei
  6
CONTINUOUS
 62
    7
 10
-93.697231884999994
 20
-53.294435215
 11
-93.763616780000007
 21
-53.339556985000002
  0
LINE
  8
_0-2__0-2__0-2__0-2__0-b__0-1_gaikei
  6
CONTINUOUS
 62
    7
 10
-93.763616780000007
 20
-53.339556985000002
 11
-93.826264230000007
 21
-53.389771519999996
  0
LINE
  8
_0-2__0-2__0-2__0-2__0-b__0-1_gaikei
  6
CONTINUOUS
 62
    7
 10
-93.826264230000007
 20
-53.389771519999996
 11
-93.88478963
 21
-53.444781749999997
  0
LINE
  8
_0-2__0-2__0-2__0-2__0-b__0-1_gaikei
  6
CONTINUOUS
 62
    7
 10
-93.88478963
 20
-53.444781749999997
 11
-93.938863620000006
 21
-53.504219595000002
  0
LINE
  8
_0-2__0-2__0-2__0-2__0-b__0-1_gaikei
  6
CONTINUOUS
 62
    7
 10
-93.938863620000006
 20
-53.504219595000002
 11
-93.988159600000003
 21
-53.567713429999998
  0
LINE
  8
_0-2__0-2__0-2__0-2__0-b__0-1_gaikei
  6
CONTINUOUS
 62
    7
 10
-93.988159600000003
 20
-53.567713429999998
 11
-94.032350969999996
 21
-53.634891639999999
  0
LINE
  8
_0-2__0-2__0-2__0-2__0-b__0-1_gaikei
  6
CONTINUOUS
 62
    7
 10
-94.032350969999996
 20
-53.634891639999999
 11
-94.071111195
 21
-53.705382555
  0
LINE
  8
_0-2__0-2__0-2__0-2__0-b__0-1_gaikei
  6
CONTINUOUS
 62
    7
 10
-94.071111195
 20
-53.705382555
 11
-94.104162665000004
 21
-53.778782264999997
  0
LINE
  8
_0-2__0-2__0-2__0-2__0-b__0-1_gaikei
  6
CONTINUOUS
 62
    7
 10
-94.104162665000004
 20
-53.778782264999997
 11
-94.131364390000002
 21
-53.854596774999997
  0
LINE
  8
_0-2__0-2__0-2__0-2__0-b__0-1_gaikei
  6
CONTINUOUS
 62
    7
 10
-94.131364390000002
 20
-53.854596774999997
 11
-94.152599045000002
 21
-53.932316495000002
  0
LINE
  8
_0-2__0-2__0-2__0-2__0-b__0-1_gaikei
  6
CONTINUOUS
 62
    7
 10
-94.152599045000002
 20
-53.932316495000002
 11
-94.167749284999999
 21
-54.011431850000001
  0
LINE
  8
_0-2__0-2__0-2__0-2__0-b__0-1_gaikei
  6
CONTINUOUS
 62
    7
 10
-94.167749284999999
 20
-54.011431850000001
 11
-94.176697790000006
 21
-54.091433244999997
  0
LINE
  8
_0-2__0-2__0-2__0-2__0-b__0-1_gaikei
  6
CONTINUOUS
 62
    7
 10
-94.176697790000006
 20
-54.091433244999997
 11
-94.179327255000004
 21
-54.171811105000003
  0
LINE
  8
_0-2__0-2__0-2__0-2__0-b__0-1_gaikei
  6
CONTINUOUS
 62
    7
 10
-94.179327255000004
 20
-54.171811105000003
 11
-94.175571195000003
 21
-54.252064939999997
  0
LINE
  8
_0-2__0-2__0-2__0-2__0-b__0-1_gaikei
  6
CONTINUOUS
 62
    7
 10
-94.175571195000003
 20
-54.252064939999997
 11
-94.165514299999998
 21
-54.331721344999998
  0
LINE
  8
_0-2__0-2__0-2__0-2__0-b__0-1_gaikei
  6
CONTINUOUS
 62
    7
 10
-94.165514299999998
 20
-54.331721344999998
 11
-94.149269274999995
 21
-54.410311909999997
  0
LINE
  8
_0-2__0-2__0-2__0-2__0-b__0-1_gaikei
  6
CONTINUOUS
 62
    7
 10
-94.149269274999995
 20
-54.410311909999997
 11
-94.126948819999996
 21
-54.487368230000001
  0
LINE
  8
_0-2__0-2__0-2__0-2__0-b__0-1_gaikei
  6
CONTINUOUS
 62
    7
 10
-94.126948819999996
 20
-54.487368230000001
 11
-94.098665879999999
 21
-54.562421989999997
  0
LINE
  8
_0-2__0-2__0-2__0-2__0-b__0-1_gaikei
  6
CONTINUOUS
 62
    7
 10
-94.098665879999999
 20
-54.562421989999997
 11
-94.064577130000004
 21
-54.635018770000002
  0
LINE
  8
_0-2__0-2__0-2__0-2__0-b__0-1_gaikei
  6
CONTINUOUS
 62
    7
 10
-94.064577130000004
 20
-54.635018770000002
 11
-94.024933654999998
 21
-54.704734185
  0
LINE
  8
_0-2__0-2__0-2__0-2__0-b__0-1_gaikei
  6
CONTINUOUS
 62
    7
 10
-94.024933654999998
 20
-54.704734185
 11
-93.979998809999998
 21
-54.771147759999998
  0
LINE
  8
_0-2__0-2__0-2__0-2__0-b__0-1_gaikei
  6
CONTINUOUS
 62
    7
 10
-93.979998809999998
 20
-54.771147759999998
 11
-93.930035959999998
 21
-54.833839009999998
  0
LINE
  8
_0-2__0-2__0-2__0-2__0-b__0-1_gaikei
  6
CONTINUOUS
 62
    7
 10
-93.930035959999998
 20
-54.833839009999998
 11
-93.875317365000001
 21
-54.892395954999998
  0
LINE
  8
_0-2__0-2__0-2__0-2__0-b__0-1_gaikei
  6
CONTINUOUS
 62
    7
 10
-93.875317365000001
 20
-54.892395954999998
 11
-93.816190515000002
 21
-54.946478409999997
  0
LINE
  8
_0-2__0-2__0-2__0-2__0-b__0-1_gaikei
  6
CONTINUOUS
 62
    7
 10
-93.816190515000002
 20
-54.946478409999997
 11
-93.753040764999994
 21
-54.995782339999998
  0
LINE
  8
_0-2__0-2__0-2__0-2__0-b__0-1_gaikei
  6
CONTINUOUS
 62
    7
 10
-93.753040764999994
 20
-54.995782339999998
 11
-93.686253739999998
 21
-55.040003955000003
  0
LINE
  8
_0-2__0-2__0-2__0-2__0-b__0-1_gaikei
  6
CONTINUOUS
 62
    7
 10
-93.686253739999998
 20
-55.040003955000003
 11
-93.616220299999995
 21
-55.078848059999999
  0
LINE
  8
_0-2__0-2__0-2__0-2__0-b__0-1_gaikei
  6
CONTINUOUS
 62
    7
 10
-93.616220299999995
 20
-55.078848059999999
 11
-93.543378279999999
 21
-55.112096575000002
  0
LINE
  8
_0-2__0-2__0-2__0-2__0-b__0-1_gaikei
  6
CONTINUOUS
 62
    7
 10
-93.543378279999999
 20
-55.112096575000002
 11
-93.468190344999996
 21
-55.139572170000001
  0
LINE
  8
_0-2__0-2__0-2__0-2__0-b__0-1_gaikei
  6
CONTINUOUS
 62
    7
 10
-93.468190344999996
 20
-55.139572170000001
 11
-93.391119395000004
 21
-55.16109797
  0
LINE
  8
_0-2__0-2__0-2__0-2__0-b__0-1_gaikei
  6
CONTINUOUS
 62
    7
 10
-93.391119395000004
 20
-55.16109797
 11
-93.312627000000006
 21
-55.176526889999998
  0
LINE
  8
_0-2__0-2__0-2__0-2__0-b__0-1_gaikei
  6
CONTINUOUS
 62
    7
 10
-93.312627000000006
 20
-55.176526889999998
 11
-93.233171429999999
 21
-55.185786514999997
  0
LINE
  8
_0-2__0-2__0-2__0-2__0-b__0-1_gaikei
  6
CONTINUOUS
 62
    7
 10
-93.233171429999999
 20
-55.185786514999997
 11
-93.153210439999995
 21
-55.188815980000001
  0
LINE
  8
_0-2__0-2__0-2__0-2__0-b__0-1_gaikei
  6
CONTINUOUS
 62
    7
 10
-93.153210439999995
 20
-55.188815980000001
 11
-93.074486045
 21
-55.18603753
  0
LINE
  8
_0-2__0-2__0-2__0-2__0-b__0-1_gaikei
  6
CONTINUOUS
 62
    7
 10
-93.074486045
 20
-55.18603753
 11
-93.002448095000005
 21
-55.179616834999997
  0
LINE
  8
_0-2__0-2__0-2__0-2__0-b__0-1_gaikei
  6
CONTINUOUS
 62
    7
 10
-93.002448095000005
 20
-55.179616834999997
 11
-92.941045279999997
 21
-55.171791345000003
  0
LINE
  8
_0-2__0-2__0-2__0-2__0-b__0-1_gaikei
  6
CONTINUOUS
 62
    7
 10
-92.941045279999997
 20
-55.171791345000003
 11
-92.892858765
 21
-55.16449368
  0
LINE
  8
_0-2__0-2__0-2__0-2__0-b__0-1_gaikei
  6
CONTINUOUS
 62
    7
 10
-92.892858765
 20
-55.16449368
 11
-92.859304929999993
 21
-55.159230620000002
  0
LINE
  8
_0-2__0-2__0-2__0-2__0-b__0-1_gaikei
  6
CONTINUOUS
 62
    7
 10
-92.859304929999993
 20
-55.159230620000002
 11
-92.836875410000005
 21
-55.155712459999997
  0
LINE
  8
_0-2__0-2__0-2__0-2__0-b__0-1_gaikei
  6
CONTINUOUS
 62
    7
 10
-92.836875410000005
 20
-55.155712459999997
 11
-92.823040535000004
 21
-55.153542399999999
  0
LINE
  8
_0-2__0-2__0-2__0-2__0-b__0-1_gaikei
  6
CONTINUOUS
 62
    7
 10
-92.823040535000004
 20
-55.153542399999999
 11
-92.816859019999995
 21
-55.152572804999998
  0
LINE
  8
_0-2__0-2__0-2__0-2__0-b__0-1_gaikei
  6
CONTINUOUS
 62
    7
 10
-92.816859019999995
 20
-55.152572804999998
 11
-92.816222164999999
 21
-55.15247291
  0
ENDBLK
  0
ENDSEC
  0
SECTION
  2
ENTITIES
  0
POINT
  8
_0-0_0
 62
    4
 10
-183.33917197452234
 20
193.70722427734705
  0
LINE
  8
_0-0_0
  6
CONTINUOUS
 62
    7
 10
-35.48248407643311
 20
-25.648885350318466
 11
110.01751592356689
 21
-25.648885350318466
  0
LINE
  8
_0-0_0
  6
CONTINUOUS
 62
    7
 10
110.01751592356689
 20
-25.648885350318466
 11
110.01751592356689
 21
75.851114649681534
  0
LINE
  8
_0-0_0
  6
CONTINUOUS
 62
    7
 10
110.01751592356689
 20
75.851114649681534
 11
-35.48248407643311
 21
75.851114649681534
  0
LINE
  8
_0-0_0
  6
CONTINUOUS
 62
    7
 10
-35.48248407643311
 20
75.851114649681534
 11
-35.48248407643311
 21
-25.648885350318466
  0
LINE
  8
_0-0_0
  6
CONTINUOUS
 62
    7
 10
24.938030322621188
 20
36.785198829821894
 11
24.938030322621188
 21
67.785198829821908
  0
LINE
  8
_0-0_0
  6
CONTINUOUS
 62
    7
 10
4.6845220637770169
 20
19.34581838485353
 11
3.4347124437770091
 21
19.34581838485353
  0
LINE
  8
_0-0_0
  6
CONTINUOUS
 62
    7
 10
3.4347124437770091
 20
19.34581838485353
 11
-0.77216998122298
 21
19.34581838485353
  0
LINE
  8
_0-0_0
  6
CONTINUOUS
 62
    7
 10
-19.859602978722975
 20
19.34581838485353
 11
-18.271852883722985
 21
19.34581838485353
  0
LINE
  8
_0-0_0
  6
CONTINUOUS
 62
    7
 10
-2.3599757412229891
 20
19.34581838485353
 11
-0.772225646222985
 21
19.34581838485353
  0
LINE
  8
_0-0_0
  6
CONTINUOUS
 62
    7
 10
4.6293295287770135
 20
22.507796654853522
 11
4.6295120337770115
 21
22.497340897353524
  0
LINE
  8
_0-0_0
  6
CONTINUOUS
 62
    7
 10
-25.316350688722977
 20
8.8458183848535441
 11
4.6836493112770299
 21
8.8458183848535441
  0
LINE
  8
_0-0_0
  6
CONTINUOUS
 62
    7
 10
35.438030322621174
 20
36.785198829821894
 11
35.438030322621174
 21
67.785198829821908
  0
LINE
  8
_0-0_0
  6
CONTINUOUS
 62
    7
 10
-25.316350688722977
 20
19.34581838485353
 11
-25.316350688722977
 21
8.8458183848535441
  0
LINE
  8
_0-0_0
  6
CONTINUOUS
 62
    7
 10
4.6836493112770299
 20
19.34581838485353
 11
4.6836493112770299
 21
8.8458183848535441
  0
LINE
  8
_0-0_0
  6
CONTINUOUS
 62
    7
 10
-4.0749779162229842
 20
24.22081838485353
 11
-1.6184664312229913
 21
24.22081838485353
  0
LINE
  8
_0-0_0
  6
CONTINUOUS
 62
    7
 10
4.6295120337770115
 20
22.497340897353524
 11
4.6845220637770169
 21
19.34581838485353
  0
LINE
  8
_0-0_0
  6
CONTINUOUS
 62
    7
 10
-19.815914313722985
 20
19.84581838485353
 11
-19.85965864372298
 21
19.34581838485353
  0
LINE
  8
_0-0_0
  6
CONTINUOUS
 62
    7
 10
-18.272169981222973
 20
19.34581838485353
 11
-18.315914313722985
 21
19.84581838485353
  0
LINE
  8
_0-0_0
  6
CONTINUOUS
 62
    7
 10
-0.8159143137229918
 20
19.84581838485353
 11
-2.3159143137229918
 21
19.84581838485353
  0
LINE
  8
_0-0_0
  6
CONTINUOUS
 62
    7
 10
-24.865190151222976
 20
22.988144252353521
 11
-19.117318041222973
 21
24.20989218485353
  0
LINE
  8
_0-0_0
  6
CONTINUOUS
 62
    7
 10
-25.261340658722972
 20
22.497340897353524
 11
-25.261158153722974
 21
22.507796654853522
  0
LINE
  8
_0-0_0
  6
CONTINUOUS
 62
    7
 10
-16.556850708722976
 20
24.22081838485353
 11
-4.0749779162229842
 21
24.22081838485353
  0
LINE
  8
_0-0_0
  6
CONTINUOUS
 62
    7
 10
-2.3159143137229918
 20
19.84581838485353
 11
-2.3596586437229874
 21
19.34581838485353
  0
LINE
  8
_0-0_0
  6
CONTINUOUS
 62
    7
 10
-1.5145105862229897
 20
24.20989218485353
 11
4.2333615262770152
 21
22.988144252353521
  0
LINE
  8
_0-0_0
  6
CONTINUOUS
 62
    7
 10
-19.013362196222985
 20
24.22081838485353
 11
-16.556850708722976
 21
24.22081838485353
  0
LINE
  8
_0-0_0
  6
CONTINUOUS
 62
    7
 10
-25.316350688722977
 20
19.34581838485353
 11
-25.261340658722972
 21
22.497340897353524
  0
LINE
  8
_0-0_0
  6
CONTINUOUS
 62
    7
 10
-0.77216998122298
 20
19.34581838485353
 11
-0.8159143137229918
 21
19.84581838485353
  0
ARC
  8
_0-0_0
  6
CONTINUOUS
 62
    7
 10
-24.761234306222974
 20
22.499070452353521
 40
0.5
 50
101.99999999999997
 51
178.99999999999997
  0
ARC
  8
_0-0_0
  6
CONTINUOUS
 62
    7
 10
-19.013362196222985
 20
23.72081838485353
 40
0.5
 50
90
 51
102
  0
ARC
  8
_0-0_0
  6
CONTINUOUS
 62
    7
 10
-1.6184664312229913
 20
23.72081838485353
 40
0.5
 50
78.000000000000014
 51
90.000000000000014
  0
ARC
  8
_0-0_0
  6
CONTINUOUS
 62
    7
 10
4.1294056812770137
 20
22.499070452353521
 40
0.5
 50
1
 51
78
  0
LINE
  8
_0-0_0
  6
CONTINUOUS
 62
    6
 10
-24.85174225255831
 20
22.979428286074992
 11
-24.865190150177398
 21
22.988144253971868
  0
LINE
  8
_0-0_0
  6
CONTINUOUS
 62
    6
 10
4.2333615254824011
 20
22.988144253573779
 11
4.2199136277654361
 21
22.979428285677315
  0
INSERT
  2
-001-GROUP_35
  8
_0-0_0
 10
36.261261696277018
 20
47.927726809853539
 41
0.5
 42
0.5
 50
0
  0
INSERT
  2
-000-GROUP_34
  8
_0-0_0
 10
36.261261696277018
 20
47.927726809853539
 41
0.5
 42
0.5
 50
0
  0
LINE
  8
_0-0_0
  6
CONTINUOUS
 62
    7
 10
-19.85965864372298
 20
19.34581838485353
 11
-24.066541071222986
 21
19.34581838485353
  0
LINE
  8
_0-0_0
  6
CONTINUOUS
 62
    7
 10
-24.066541071222986
 20
19.34581838485353
 11
-25.316350688722977
 21
19.34581838485353
  0
LINE
  8
_0-0_0
  6
CONTINUOUS
 62
    7
 10
-18.315914313722985
 20
19.84581838485353
 11
-19.815914313722985
 21
19.84581838485353
  0
LINE
  8
_0-0_0
  6
CONTINUOUS
 62
    7
 10
-2.3596586437229874
 20
19.34581838485353
 11
-18.272169981222973
 21
19.34581838485353
  0
LINE
  8
_0-0_0
  6
CONTINUOUS
 62
    7
 10
-25.316350688722977
 20
18.84581838485353
 11
4.6836493112770299
 21
18.84581838485353
  0
LINE
  8
_0-0_0
  6
CONTINUOUS
 62
    7
 10
-25.261340658722972
 20
22.497340897353524
 11
4.6295120337770115
 21
22.497340897353524
  0
LINE
  8
_0-0_0
  6
CONTINUOUS
 62
    7
 10
25.438030322621188
 20
36.785198829821894
 11
25.438030322621188
 21
67.785198829821908
  0
LINE
  8
_0-0_0
  6
CONTINUOUS
 62
    7
 10
25.438030322621188
 20
67.785198829821951
 11
35.438030322621174
 21
67.785198829821908
  0
LINE
  8
_0-0_0
  6
CONTINUOUS
 62
    7
 10
25.438030322621188
 20
36.785198829821894
 11
35.438030322621174
 21
36.785198829821894
  0
LINE
  8
_0-0_0
  6
CONTINUOUS
 62
    7
 10
24.938030322621188
 20
36.785198829821894
 11
25.438030322621188
 21
36.785198829821894
  0
LINE
  8
_0-0_0
  6
CONTINUOUS
 62
    7
 10
24.938030322621188
 20
67.785198829821908
 11
25.438030322621188
 21
67.785198829821908
  0
ARC
  8
_0-0_0
  6
CONTINUOUS
 62
    7
 10
20.563030322621188
 20
39.958109784821914
 40
0.5
 50
180
 51
205
  0
LINE
  8
_0-0_0
  6
CONTINUOUS
 62
    7
 10
20.109876430121176
 20
39.746800652321909
 11
21.272208992621188
 21
37.25417042732191
  0
LINE
  8
_0-0_0
  6
CONTINUOUS
 62
    7
 10
21.272208992621188
 20
67.440354477321904
 11
20.474682412621178
 21
65.730053209821904
  0
LINE
  8
_0-0_0
  6
CONTINUOUS
 62
    7
 10
24.938030322621188
 20
67.785198829821908
 11
21.716636682621186
 21
67.7289691948219
  0
ARC
  8
_0-0_0
  6
CONTINUOUS
 62
    7
 10
21.725362885121172
 20
37.465479559821901
 40
0.5
 50
205
 51
269
  0
ARC
  8
_0-0_0
  6
CONTINUOUS
 62
    7
 10
21.725362885121172
 20
67.229045347321915
 40
0.5
 50
91
 51
155
  0
LINE
  8
_0-0_0
  6
CONTINUOUS
 62
    7
 10
20.474682407352475
 20
65.730053213391272
 11
20.132795967619273
 21
64.817135782780795
  0
LINE
  8
_0-0_0
  6
CONTINUOUS
 62
    7
 10
20.132795967619273
 20
64.817135782780795
 11
20.080430974676077
 21
64.623335943303687
  0
LINE
  8
_0-0_0
  6
CONTINUOUS
 62
    7
 10
24.938030322621188
 20
67.785198829821908
 11
24.938030322621188
 21
36.909326077321907
  0
LINE
  8
_0-0_0
  6
CONTINUOUS
 62
    7
 10
21.716636682621186
 20
36.965555712321901
 11
21.832396120968426
 21
36.963535123814736
  0
LINE
  8
_0-0_0
  6
CONTINUOUS
 62
    7
 10
21.832396120968426
 20
36.963535123814736
 11
21.868755069201143
 21
36.962900476014255
  0
LINE
  8
_0-0_0
  6
CONTINUOUS
 62
    7
 10
21.868755069201143
 20
36.962900476014255
 11
24.938030322621188
 21
36.909326077321907
  0
LINE
  8
_0-0_0
  6
CONTINUOUS
 62
    7
 10
21.792005102621175
 20
67.728969194809792
 11
21.792005102621175
 21
36.963535123814736
  0
LINE
  8
_0-0_0
  6
CONTINUOUS
 62
    7
 10
20.063030322621188
 20
64.482608267321908
 11
20.063030322621188
 21
39.9581097848219
  0
LINE
  8
_0-0_0
  6
CONTINUOUS
 62
    7
 10
4.6845220637770169
 20
66.535389209821915
 11
4.6845220637770169
 21
38.159135694821913
  0
LINE
  8
_0-0_0
  6
CONTINUOUS
 62
    7
 10
-25.316350688722977
 20
38.159135694821913
 11
-25.316350688722977
 21
66.535389209821915
  0
LINE
  8
_0-0_0
  6
CONTINUOUS
 62
    7
 10
-3.0659143137229776
 20
42.4722624523219
 11
-6.5659143137229705
 21
42.4722624523219
  0
LINE
  8
_0-0_0
  6
CONTINUOUS
 62
    7
 10
-24.066541071222986
 20
67.785198829821908
 11
3.4347124437770091
 21
67.785198829821908
  0
LINE
  8
_0-0_0
  6
CONTINUOUS
 62
    7
 10
-3.0659143137229776
 20
45.7222624523219
 11
-6.5659143137229705
 21
45.7222624523219
  0
LINE
  8
_0-0_0
  6
CONTINUOUS
 62
    7
 10
-3.0659143137229776
 20
42.9722624523219
 11
-6.5659143137229705
 21
42.9722624523219
  0
LINE
  8
_0-0_0
  6
CONTINUOUS
 62
    7
 10
-3.0659143137229776
 20
44.2222624523219
 11
-6.5659143137229705
 21
44.2222624523219
  0
LINE
  8
_0-0_0
  6
CONTINUOUS
 62
    7
 10
-3.0659143137229776
 20
43.9722624523219
 11
-6.5659143137229705
 21
43.9722624523219
  0
LINE
  8
_0-0_0
  6
CONTINUOUS
 62
    7
 10
-3.0659143137229776
 20
45.2222624523219
 11
-6.5659143137229705
 21
45.2222624523219
  0
LINE
  8
_0-0_0
  6
CONTINUOUS
 62
    7
 10
-3.0659143137229776
 20
43.7222624523219
 11
-6.5659143137229705
 21
43.7222624523219
  0
LINE
  8
_0-0_0
  6
CONTINUOUS
 62
    7
 10
-3.0659143137229776
 20
44.7222624523219
 11
-6.5659143137229705
 21
44.7222624523219
  0
LINE
  8
_0-0_0
  6
CONTINUOUS
 62
    7
 10
-3.0659143137229776
 20
43.2222624523219
 11
-6.5659143137229705
 21
43.2222624523219
  0
LINE
  8
_0-0_0
  6
CONTINUOUS
 62
    7
 10
-3.0659143137229776
 20
44.9722624523219
 11
-6.5659143137229705
 21
44.9722624523219
  0
LINE
  8
_0-0_0
  6
CONTINUOUS
 62
    7
 10
-3.0659143137229776
 20
43.4722624523219
 11
-6.5659143137229705
 21
43.4722624523219
  0
LINE
  8
_0-0_0
  6
CONTINUOUS
 62
    7
 10
-3.0659143137229776
 20
42.7222624523219
 11
-6.5659143137229705
 21
42.7222624523219
  0
LINE
  8
_0-0_0
  6
CONTINUOUS
 62
    7
 10
-3.0659143137229776
 20
44.4722624523219
 11
-6.5659143137229705
 21
44.4722624523219
  0
LINE
  8
_0-0_0
  6
CONTINUOUS
 62
    7
 10
-3.0659143137229776
 20
45.4722624523219
 11
-6.5659143137229705
 21
45.4722624523219
  0
ARC
  8
_0-0_0
  6
CONTINUOUS
 62
    7
 10
-6.5659143137229705
 20
45.5972624523219
 40
0.125
 50
90
 51
270
  0
ARC
  8
_0-0_0
  6
CONTINUOUS
 62
    7
 10
-6.5659143137229705
 20
42.5972624523219
 40
0.125
 50
90
 51
270
  0
ARC
  8
_0-0_0
  6
CONTINUOUS
 62
    7
 10
-6.5659143137229705
 20
44.5972624523219
 40
0.125
 50
90
 51
270
  0
ARC
  8
_0-0_0
  6
CONTINUOUS
 62
    7
 10
-6.5659143137229705
 20
43.0972624523219
 40
0.125
 50
90
 51
270
  0
ARC
  8
_0-0_0
  6
CONTINUOUS
 62
    7
 10
-6.5659143137229705
 20
44.0972624523219
 40
0.125
 50
90
 51
270
  0
ARC
  8
_0-0_0
  6
CONTINUOUS
 62
    7
 10
-6.5659143137229705
 20
45.0972624523219
 40
0.125
 50
90
 51
270
  0
ARC
  8
_0-0_0
  6
CONTINUOUS
 62
    7
 10
-6.5659143137229705
 20
43.5972624523219
 40
0.125
 50
90
 51
270
  0
CIRCLE
  8
_0-0_0
  6
CONTINUOUS
 62
    7
 10
-13.065914313722971
 20
46.017262452321901
 40
1.25
  0
CIRCLE
  8
_0-0_0
  6
CONTINUOUS
 62
    7
 10
-13.065914313722971
 20
49.49226245232191
 40
1.25
  0
CIRCLE
  8
_0-0_0
  6
CONTINUOUS
 62
    7
 10
-13.065914313722971
 20
53.9722624523219
 40
0.4124999999999999
  0
CIRCLE
  8
_0-0_0
  6
CONTINUOUS
 62
    7
 10
-13.065914313722971
 20
58.9722624523219
 40
0.4124999999999999
  0
CIRCLE
  8
_0-0_0
  6
CONTINUOUS
 62
    7
 10
-13.065914313722971
 20
56.4722624523219
 40
0.4124999999999999
  0
ARC
  8
_0-0_0
  6
CONTINUOUS
 62
    7
 10
-3.0659143137229776
 20
44.5972624523219
 40
0.125
 50
270
 51
90
  0
ARC
  8
_0-0_0
  6
CONTINUOUS
 62
    7
 10
-3.0659143137229776
 20
45.5972624523219
 40
0.125
 50
270
 51
90
  0
ARC
  8
_0-0_0
  6
CONTINUOUS
 62
    7
 10
-3.0659143137229776
 20
43.0972624523219
 40
0.125
 50
270
 51
90
  0
ARC
  8
_0-0_0
  6
CONTINUOUS
 62
    7
 10
-3.0659143137229776
 20
44.0972624523219
 40
0.125
 50
270
 51
90
  0
ARC
  8
_0-0_0
  6
CONTINUOUS
 62
    7
 10
-3.0659143137229776
 20
45.0972624523219
 40
0.125
 50
270
 51
90
  0
ARC
  8
_0-0_0
  6
CONTINUOUS
 62
    7
 10
-3.0659143137229776
 20
42.5972624523219
 40
0.125
 50
270
 51
90
  0
ARC
  8
_0-0_0
  6
CONTINUOUS
 62
    7
 10
-3.0659143137229776
 20
43.5972624523219
 40
0.125
 50
270
 51
90
  0
LINE
  8
_0-0_0
  6
CONTINUOUS
 62
    7
 10
4.6845220639057246
 20
66.535389210857474
 11
4.6655288624004569
 21
66.75247670217135
  0
LINE
  8
_0-0_0
  6
CONTINUOUS
 62
    7
 10
4.6655288624004569
 20
66.75247670217135
 11
4.6091263567270104
 21
66.962956529770295
  0
LINE
  8
_0-0_0
  6
CONTINUOUS
 62
    7
 10
4.6091263567270104
 20
66.962956529770295
 11
4.5170283084792331
 21
67.160433370600643
  0
LINE
  8
_0-0_0
  6
CONTINUOUS
 62
    7
 10
4.5170283084792331
 20
67.160433370600643
 11
4.3920330702492762
 21
67.338906990781894
  0
LINE
  8
_0-0_0
  6
CONTINUOUS
 62
    7
 10
4.3920330702492762
 20
67.338906990781894
 11
4.2379385591001082
 21
67.492954559676818
  0
LINE
  8
_0-0_0
  6
CONTINUOUS
 62
    7
 10
4.2379385591001082
 20
67.492954559676818
 11
4.0594268587774067
 21
67.617895419856382
  0
LINE
  8
_0-0_0
  6
CONTINUOUS
 62
    7
 10
4.0594268587774067
 20
67.617895419856382
 11
3.8619219569642098
 21
67.709933306507168
  0
LINE
  8
_0-0_0
  6
CONTINUOUS
 62
    7
 10
3.8619219569642098
 20
67.709933306507168
 11
3.6514249401598065
 21
67.766271695016698
  0
LINE
  8
_0-0_0
  6
CONTINUOUS
 62
    7
 10
3.6514249401598065
 20
67.766271695016698
 11
3.4347124448125896
 21
67.785198829950616
  0
LINE
  8
_0-0_0
  6
CONTINUOUS
 62
    7
 10
-25.316350688851685
 20
38.159135696286341
 11
-25.297357487346417
 21
37.942048204972465
  0
LINE
  8
_0-0_0
  6
CONTINUOUS
 62
    7
 10
-25.297357487346417
 20
37.942048204972465
 11
-25.240954981672971
 21
37.73156837737352
  0
LINE
  8
_0-0_0
  6
CONTINUOUS
 62
    7
 10
-25.240954981672971
 20
37.73156837737352
 11
-25.148856933425193
 21
37.534091536543173
  0
LINE
  8
_0-0_0
  6
CONTINUOUS
 62
    7
 10
-25.148856933425193
 20
37.534091536543173
 11
-25.023861695195237
 21
37.355617916361922
  0
LINE
  8
_0-0_0
  6
CONTINUOUS
 62
    7
 10
-25.023861695195237
 20
37.355617916361922
 11
-24.869767184046069
 21
37.201570347466998
  0
LINE
  8
_0-0_0
  6
CONTINUOUS
 62
    7
 10
-24.869767184046069
 20
37.201570347466998
 11
-24.691255483723367
 21
37.076629487287434
  0
LINE
  8
_0-0_0
  6
CONTINUOUS
 62
    7
 10
-24.691255483723367
 20
37.076629487287434
 11
-24.493750581910177
 21
36.984591600636648
  0
LINE
  8
_0-0_0
  6
CONTINUOUS
 62
    7
 10
-24.493750581910177
 20
36.984591600636648
 11
-24.283253565105767
 21
36.928253212127117
  0
LINE
  8
_0-0_0
  6
CONTINUOUS
 62
    7
 10
-24.283253565105767
 20
36.928253212127117
 11
-24.066541069758529
 21
36.909326077193199
  0
LINE
  8
_0-0_0
  6
CONTINUOUS
 62
    7
 10
-24.066541069758543
 20
67.785198829950616
 11
-24.283628561072419
 21
67.766205628445348
  0
LINE
  8
_0-0_0
  6
CONTINUOUS
 62
    7
 10
-24.283628561072419
 20
67.766205628445348
 11
-24.494108388671364
 21
67.709803122771902
  0
LINE
  8
_0-0_0
  6
CONTINUOUS
 62
    7
 10
-24.494108388671364
 20
67.709803122771902
 11
-24.691585229501726
 21
67.617705074524125
  0
LINE
  8
_0-0_0
  6
CONTINUOUS
 62
    7
 10
-24.691585229501726
 20
67.617705074524125
 11
-24.870058849682962
 21
67.492709836294168
  0
LINE
  8
_0-0_0
  6
CONTINUOUS
 62
    7
 10
-24.870058849682962
 20
67.492709836294168
 11
-25.024106418577887
 21
67.338615325145
  0
LINE
  8
_0-0_0
  6
CONTINUOUS
 62
    7
 10
-25.024106418577887
 20
67.338615325145
 11
-25.14904727875745
 21
67.160103624822298
  0
LINE
  8
_0-0_0
  6
CONTINUOUS
 62
    7
 10
-25.14904727875745
 20
67.160103624822298
 11
-25.241085165408236
 21
66.962598723009094
  0
LINE
  8
_0-0_0
  6
CONTINUOUS
 62
    7
 10
-25.241085165408236
 20
66.962598723009094
 11
-25.297423553917781
 21
66.752101706204698
  0
LINE
  8
_0-0_0
  6
CONTINUOUS
 62
    7
 10
-25.297423553917781
 20
66.752101706204698
 11
-25.316350688851685
 21
66.535389210857474
  0
LINE
  8
_0-0_0
  6
CONTINUOUS
 62
    7
 10
3.4347124448125754
 20
36.909326077193185
 11
3.6517999361264515
 21
36.928319278698453
  0
LINE
  8
_0-0_0
  6
CONTINUOUS
 62
    7
 10
3.6517999361264515
 20
36.928319278698453
 11
3.8622797637253967
 21
36.984721784371899
  0
LINE
  8
_0-0_0
  6
CONTINUOUS
 62
    7
 10
3.8622797637253967
 20
36.984721784371899
 11
4.0597566045557585
 21
37.076819832619677
  0
LINE
  8
_0-0_0
  6
CONTINUOUS
 62
    7
 10
4.0597566045557585
 20
37.076819832619677
 11
4.238230224736995
 21
37.201815070849634
  0
LINE
  8
_0-0_0
  6
CONTINUOUS
 62
    7
 10
4.238230224736995
 20
37.201815070849634
 11
4.3922777936319264
 21
37.355909581998802
  0
LINE
  8
_0-0_0
  6
CONTINUOUS
 62
    7
 10
4.3922777936319264
 20
37.355909581998802
 11
4.5172186538114971
 21
37.534421282321503
  0
LINE
  8
_0-0_0
  6
CONTINUOUS
 62
    7
 10
4.5172186538114971
 20
37.534421282321503
 11
4.6092565404622832
 21
37.731926184134707
  0
LINE
  8
_0-0_0
  6
CONTINUOUS
 62
    7
 10
4.6092565404622832
 20
37.731926184134707
 11
4.6655949289718208
 21
37.942423200939118
  0
LINE
  8
_0-0_0
  6
CONTINUOUS
 62
    7
 10
4.6655949289718208
 20
37.942423200939118
 11
4.6845220639057317
 21
38.159135696286356
  0
LINE
  8
_0-0_0
  6
CONTINUOUS
 62
    7
 10
-16.556850710325378
 20
64.736415118131802
 11
-18.004455024542651
 21
64.574649484656774
  0
LINE
  8
_0-0_0
  6
CONTINUOUS
 62
    7
 10
-18.004455024542651
 20
64.574649484656774
 11
-18.825078423605632
 21
64.094267748332697
  0
LINE
  8
_0-0_0
  6
CONTINUOUS
 62
    7
 10
-18.825078423605632
 20
64.094267748332697
 11
-19.01336219472644
 21
63.527907343819663
  0
LINE
  8
_0-0_0
  6
CONTINUOUS
 62
    7
 10
-4.0749779162229842
 20
64.736415122321901
 11
-16.556850708722976
 21
64.736415122321901
  0
LINE
  8
_0-0_0
  6
CONTINUOUS
 62
    7
 10
-1.6184664302195415
 20
63.527907343819635
 11
-1.9472844540214993
 21
64.240072168064998
  0
LINE
  8
_0-0_0
  6
CONTINUOUS
 62
    7
 10
-1.9472844540214993
 20
64.240072168064998
 11
-2.9237475575488645
 21
64.643786851921661
  0
LINE
  8
_0-0_0
  6
CONTINUOUS
 62
    7
 10
-2.9237475575488645
 20
64.643786851921661
 11
-4.0749779146206464
 21
64.736415118131774
  0
LINE
  8
_0-0_0
  6
CONTINUOUS
 62
    7
 10
-1.6184664312229771
 20
41.166617562321903
 11
-1.6184664312229771
 21
63.52790734232191
  0
LINE
  8
_0-0_0
  6
CONTINUOUS
 62
    7
 10
-4.0749779146206322
 20
39.958109786511983
 11
-2.627373600403331
 21
40.119875419987011
  0
LINE
  8
_0-0_0
  6
CONTINUOUS
 62
    7
 10
-2.627373600403331
 20
40.119875419987011
 11
-1.8067502013403356
 21
40.600257156311088
  0
LINE
  8
_0-0_0
  6
CONTINUOUS
 62
    7
 10
-1.8067502013403356
 20
40.600257156311088
 11
-1.6184664302195273
 21
41.166617560824136
  0
LINE
  8
_0-0_0
  6
CONTINUOUS
 62
    7
 10
-16.556850708722976
 20
39.9581097848219
 11
-4.0749779162229842
 21
39.9581097848219
  0
CIRCLE
  8
_0-0_0
  6
CONTINUOUS
 62
    7
 10
-13.065914313722971
 20
58.9722624523219
 40
0.5374999999999996
  0
CIRCLE
  8
_0-0_0
  6
CONTINUOUS
 62
    7
 10
-13.065914313722971
 20
56.4722624523219
 40
0.5374999999999996
  0
CIRCLE
  8
_0-0_0
  6
CONTINUOUS
 62
    7
 10
-13.065914313722971
 20
53.9722624523219
 40
0.5374999999999996
  0
LINE
  8
_0-0_0
  6
CONTINUOUS
 62
    7
 10
-19.013362196222971
 20
63.52790734232191
 11
-19.013362196222971
 21
41.166617562321903
  0
LINE
  8
_0-0_0
  6
CONTINUOUS
 62
    7
 10
-19.01336219472644
 20
41.166617560824136
 11
-18.684544170924482
 21
40.454452736578773
  0
LINE
  8
_0-0_0
  6
CONTINUOUS
 62
    7
 10
-18.684544170924482
 20
40.454452736578773
 11
-17.708081067397103
 21
40.05073805272211
  0
LINE
  8
_0-0_0
  6
CONTINUOUS
 62
    7
 10
-17.708081067397103
 20
40.05073805272211
 11
-16.556850710325378
 21
39.958109786511983
  0
LINE
  8
_0-0_0
  6
CONTINUOUS
 62
    7
 10
-24.066541069758543
 20
36.909326077193199
 11
3.4347124448125683
 21
36.909326077193199
  0
LINE
  8
_0-0_0
  6
CONTINUOUS
 62
    7
 10
51.336218755956992
 20
-2.8991376975878893
 11
51.33621875595702
 21
-16.399137697587882
  0
LINE
  8
_0-0_0
  6
CONTINUOUS
 62
    7
 10
85.83621875595702
 20
-2.8991376975878893
 11
85.83621875595702
 21
-11.899137697587882
  0
LINE
  8
_0-0_0
  6
CONTINUOUS
 62
    7
 10
94.83621875595702
 20
-2.8991376975878893
 11
94.83621875595702
 21
-11.899137697587882
  0
LINE
  8
_0-0_0
  6
CONTINUOUS
 62
    7
 10
104.58621875595702
 20
-2.8991376975878893
 11
104.58621875595702
 21
-20.899137697587882
  0
LINE
  8
_0-0_0
  6
CONTINUOUS
 62
    3
 10
96.689705039984915
 20
-5.1491376975878893
 11
102.73273247192918
 21
-5.1491376975878893
  0
LINE
  8
_0-0_0
  6
CONTINUOUS
 62
    7
 10
99.978953831814579
 20
70.278426384958124
 11
99.978953831814579
 21
10.278426384958152
  0
LINE
  8
_0-0_0
  6
CONTINUOUS
 62
    7
 10
44.978953831814522
 20
10.278426384958152
 11
99.978953831814579
 21
10.278426384958152
  0
LINE
  8
_0-0_0
  6
CONTINUOUS
 62
    7
 10
44.978953831814522
 20
37.778426384958124
 11
99.978953831814579
 21
37.778426384958124
  0
LINE
  8
_0-0_0
  6
CONTINUOUS
 62
    7
 10
44.978953831814522
 20
32.778426384958152
 11
99.978953831814579
 21
32.778426384958152
  0
LINE
  8
_0-0_0
  6
CONTINUOUS
 62
    7
 10
44.978953831814522
 20
30.278426384958152
 11
99.978953831814579
 21
30.278426384958152
  0
LINE
  8
_0-0_0
  6
CONTINUOUS
 62
    7
 10
44.978953831814522
 20
27.778426384958152
 11
99.978953831814579
 21
27.778426384958152
  0
LINE
  8
_0-0_0
  6
CONTINUOUS
 62
    7
 10
44.978953831814522
 20
25.278426384958145
 11
99.978953831814579
 21
25.278426384958145
  0
LINE
  8
_0-0_0
  6
CONTINUOUS
 62
    7
 10
44.978953831814522
 20
22.778426384958145
 11
99.978953831814579
 21
22.778426384958145
  0
LINE
  8
_0-0_0
  6
CONTINUOUS
 62
    7
 10
44.978953831814522
 20
20.278426384958145
 11
99.978953831814579
 21
20.278426384958145
  0
LINE
  8
_0-0_0
  6
CONTINUOUS
 62
    7
 10
44.978953831814522
 20
17.778426384958145
 11
99.978953831814579
 21
17.778426384958145
  0
LINE
  8
_0-0_0
  6
CONTINUOUS
 62
    7
 10
44.978953831814522
 20
15.278426384958152
 11
99.978953831814579
 21
15.278426384958152
  0
LINE
  8
_0-0_0
  6
CONTINUOUS
 62
    7
 10
44.978953831814522
 20
12.778426384958152
 11
99.978953831814579
 21
12.778426384958152
  0
LINE
  8
_0-0_0
  6
CONTINUOUS
 62
    7
 10
44.978953831814522
 20
42.778426384958124
 11
99.978953831814579
 21
42.778426384958124
  0
LINE
  8
_0-0_0
  6
CONTINUOUS
 62
    7
 10
44.978953831814522
 20
47.778426384958124
 11
99.978953831814579
 21
47.778426384958124
  0
LINE
  8
_0-0_0
  6
CONTINUOUS
 62
    7
 10
44.978953831814522
 20
50.278426384958124
 11
99.978953831814579
 21
50.278426384958124
  0
LINE
  8
_0-0_0
  6
CONTINUOUS
 62
    7
 10
44.978953831814522
 20
52.778426384958124
 11
99.978953831814579
 21
52.778426384958124
  0
LINE
  8
_0-0_0
  6
CONTINUOUS
 62
    7
 10
44.978953831814522
 20
55.278426384958124
 11
99.978953831814579
 21
55.278426384958124
  0
LINE
  8
_0-0_0
  6
CONTINUOUS
 62
    7
 10
44.978953831814522
 20
57.778426384958124
 11
99.978953831814579
 21
57.778426384958124
  0
LINE
  8
_0-0_0
  6
CONTINUOUS
 62
    7
 10
44.978953831814522
 20
60.278426384958124
 11
99.978953831814579
 21
60.278426384958124
  0
LINE
  8
_0-0_0
  6
CONTINUOUS
 62
    7
 10
44.978953831814522
 20
62.778426384958124
 11
99.978953831814579
 21
62.778426384958124
  0
LINE
  8
_0-0_0
  6
CONTINUOUS
 62
    7
 10
44.978953831814522
 20
65.278426384958124
 11
99.978953831814579
 21
65.278426384958124
  0
LINE
  8
_0-0_0
  6
CONTINUOUS
 62
    7
 10
44.978953831814522
 20
67.778426384958124
 11
99.978953831814579
 21
67.778426384958124
  0
LINE
  8
_0-0_0
  6
CONTINUOUS
 62
    7
 10
44.978953831814522
 20
70.278426384958124
 11
44.978953831814522
 21
10.278426384958152
  0
LINE
  8
_0-0_0
  6
CONTINUOUS
 62
    7
 10
44.978953831814522
 20
70.278426384958124
 11
99.978953831814579
 21
70.278426384958124
  0
LINE
  8
_0-0_0
  6
CONTINUOUS
 62
    7
 10
44.978953831814522
 20
35.278426384958152
 11
99.978953831814579
 21
35.278426384958152
  0
TEXT
  8
_0-0_0
 62
    7
 10
67.900093223484475
 20
68.368537709347862
 40
1.5
 41
1
 50
0
  1
仕　　　　　様
  0
LINE
  8
_0-0_0
  6
CONTINUOUS
 62
    4
 10
-25.316350688722977
 20
71.773245774147213
 11
4.6845220637770169
 21
71.773245774147213
  0
POINT
  8
_0-0_0
 62
    4
 10
-25.316350688722977
 20
71.773245774147213
  0
POINT
  8
_0-0_0
 62
    4
 10
4.6845220637770169
 20
71.773245774147213
  0
LINE
  8
_0-0_0
  6
CONTINUOUS
 62
    4
 10
-25.316350688722977
 20
71.773245774147213
 11
-25.316350688722977
 21
68.99831550615923
  0
LINE
  8
_0-0_0
  6
CONTINUOUS
 62
    4
 10
4.6845220637770169
 20
71.773245774147213
 11
4.6845220637770169
 21
68.99831550615923
  0
POINT
  8
_0-0_0
 62
    4
 10
20.080430974676077
 20
71.773245774147213
  0
LINE
  8
_0-0_0
  6
CONTINUOUS
 62
    4
 10
20.080430974676077
 20
71.773245774147213
 11
20.080430974676077
 21
68.99831550615923
  0
LINE
  8
_0-0_0
  6
CONTINUOUS
 62
    4
 10
20.080430974676077
 20
71.773245774147213
 11
35.438030322621174
 21
71.773245774147213
  0
POINT
  8
_0-0_0
 62
    4
 10
35.438030322621174
 20
71.773245774147213
  0
LINE
  8
_0-0_0
  6
CONTINUOUS
 62
    4
 10
35.438030322621174
 20
71.773245774147213
 11
35.438030322621174
 21
68.99831550615923
  0
LINE
  8
_0-0_0
  6
CONTINUOUS
 62
    4
 10
-29.313640690065441
 20
67.785198829950616
 11
-29.313640690065441
 21
36.909326077193199
  0
POINT
  8
_0-0_0
 62
    4
 10
-29.313640690065441
 20
67.785198829950616
  0
POINT
  8
_0-0_0
 62
    4
 10
-29.313640690065441
 20
36.909326077193199
  0
LINE
  8
_0-0_0
  6
CONTINUOUS
 62
    4
 10
-29.313640690065441
 20
67.785198829950616
 11
-26.902371751715734
 21
67.785198829950616
  0
LINE
  8
_0-0_0
  6
CONTINUOUS
 62
    4
 10
-29.313640690065441
 20
36.909326077193199
 11
-26.902371751715734
 21
36.909326077193199
  0
TEXT
  8
_0-0_0
 62
    7
 10
-10.628414312472984
 20
71.898245774147213
 40
0.625
 41
1
 50
0
  1
120
  0
TEXT
  8
_0-0_0
 62
    7
 10
-29.438640690065441
 20
51.566012453571915
 40
0.625
 41
1
 50
90
  1
124
  0
TEXT
  8
_0-0_0
 62
    7
 10
47.538002322880374
 20
65.895795586527299
 40
1.5
 41
1
 50
0
  1
型番　：　AD-AS-1AM
  0
TEXT
  8
_0-0_0
 62
    7
 10
47.538002322880374
 20
63.395795586527299
 40
1.5
 41
1
 50
0
  1
センサ回路数　：　1
  0
TEXT
  8
_0-0_0
 62
    7
 10
47.538002322880374
 20
60.895795586527299
 40
1.5
 41
1
 50
0
  1
電源電圧　：　AC100～AC240V
  0
TEXT
  8
_0-0_0
 62
    7
 10
47.538002322880374
 20
58.395795586527299
 40
1.5
 41
1
 50
0
  1
周波数　：　50/60Hz
  0
TEXT
  8
_0-0_0
 62
    7
 10
47.538002322880374
 20
55.895795586527299
 40
1.5
 41
1
 50
0
  1
センサ印加電圧　：　AC5.3V（最大値）
  0
TEXT
  8
_0-0_0
 62
    7
 10
47.538002322880374
 20
53.395795586527299
 40
1.5
 41
1
 50
0
  1
センサ短絡電流　：　0.4mA以下
  0
TEXT
  8
_0-0_0
 62
    7
 10
47.538002322880374
 20
50.895795586527299
 40
1.5
 41
1
 50
0
  1
漏水警報　：　赤色LEDランプ点滅・ブザー嗚動
  0
TEXT
  8
_0-0_0
 62
    7
 10
47.538002322880374
 20
48.395795586527299
 40
1.5
 41
1
 50
0
  1
断線警報　：　黄色LEDランプ点滅・ブザー嗚動
  0
TEXT
  8
_0-0_0
 62
    7
 10
47.538002322880374
 20
45.895795586527299
 40
1.5
 41
1
 50
0
  1
制御接点構成　：　漏水接点　1c×1点
  0
TEXT
  8
_0-0_0
 62
    7
 10
47.538002322880374
 20
43.395795586527299
 40
1.5
 41
1
 50
0
  1
(無電圧接点)　　　断線接点　1c×1点
  0
TEXT
  8
_0-0_0
 62
    7
 10
47.538002322880374
 20
40.895795586527299
 40
1.5
 41
1
 50
0
  1
制御出力接点負荷　：　AC250V 2.0A
  0
TEXT
  8
_0-0_0
 62
    7
 10
47.538002322880374
 20
38.395795586527299
 40
1.5
 41
1
 50
0
  1
（抵抗負荷）　　　　　DC 24V 2.0A
  0
TEXT
  8
_0-0_0
 62
    7
 10
47.538002322880374
 20
35.895795586527299
 40
1.5
 41
1
 50
0
  1
消費電力　：　最大7.0VA
  0
TEXT
  8
_0-0_0
 62
    7
 10
47.538002322880374
 20
33.395795586527299
 40
1.5
 41
1
 50
0
  1
感度調整　：　有（10段階で設定可能）
  0
TEXT
  8
_0-0_0
 62
    7
 10
47.538002322880374
 20
30.895795586527299
 40
1.5
 41
1
 50
0
  1
断線検知機能　：　有（スイッチで有無設定可能）
  0
TEXT
  8
_0-0_0
 62
    7
 10
47.538002322880374
 20
28.395795586527299
 40
1.5
 41
1
 50
0
  1
警報保持機能　：　有（スイッチで有無設定可能）
  0
TEXT
  8
_0-0_0
 62
    7
 10
47.538002322880374
 20
25.895795586527299
 40
1.5
 41
1
 50
0
  1
フェイルセーフ機能　：　有（スイッチで有無設定可能）
  0
TEXT
  8
_0-0_0
 62
    7
 10
47.538002322880374
 20
23.395795586527299
 40
1.5
 41
1
 50
0
  1
ブザー設定機能　：　有（音量調節、スイッチで有無設定可能）
  0
TEXT
  8
_0-0_0
 62
    7
 10
47.538002322880374
 20
20.895795586527299
 40
1.5
 41
1
 50
0
  1
チェック機能　：　有
  0
TEXT
  8
_0-0_0
 62
    7
 10
47.538002322880374
 20
18.395795586527299
 40
1.5
 41
1
 50
0
  1
取付方法　：　露出取付、埋め込み取付可能
  0
TEXT
  8
_0-0_0
 62
    7
 10
47.538002322880374
 20
15.895795586527299
 40
1.5
 41
1
 50
0
  1
外形寸法　：　（W）120×（H）124×（D）61.5
  0
TEXT
  8
_0-0_0
 62
    7
 10
47.538002322880374
 20
13.395795586527299
 40
1.5
 41
1
 50
0
  1
重量　：　約300g
  0
TEXT
  8
_0-0_0
 62
    7
 10
47.538002322880374
 20
10.895795586527299
 40
1.5
 41
1
 50
0
  1
材質・色　：　ABS樹脂・アイボリーホワイト
  0
CIRCLE
  8
_0-0_0
  6
CONTINUOUS
 62
    7
 10
-87.091402991325992
 20
45.899763932352059
 40
0.1156159168129612
  0
LINE
  8
_0-0_0
  6
CONTINUOUS
 62
    7
 10
-9.5553608440216209
 20
40.954952887470029
 11
-8.9784858440216198
 21
40.954952887470029
  0
LINE
  8
_0-0_0
  6
CONTINUOUS
 62
    7
 10
-8.9784858440216198
 20
40.954952887470029
 11
-8.9784858440216198
 21
41.678177887470028
  0
LINE
  8
_0-0_0
  6
CONTINUOUS
 62
    7
 10
-8.9784858440216198
 20
41.678177887470028
 11
-9.2888858440216353
 21
41.678177887470028
  0
LINE
  8
_0-0_0
  6
CONTINUOUS
 62
    7
 10
-9.2888858440216353
 20
41.678177887470028
 11
-9.2888858440216353
 21
41.062352887470027
  0
LINE
  8
_0-0_0
  6
CONTINUOUS
 62
    7
 10
-9.2888858440216353
 20
41.062352887470027
 11
-9.4578608440216243
 21
41.062352887470027
  0
ARC
  8
_0-0_0
  6
CONTINUOUS
 62
    7
 10
-9.4596597038869419
 20
41.164828241585809
 40
0.1024911415585208
 50
177.959301451063
 51
271.0056710173173
  0
LINE
  8
_0-0_0
  6
CONTINUOUS
 62
    7
 10
-9.5620858440216097
 20
41.168477887470033
 11
-9.5620858440216097
 21
41.676952887470037
  0
LINE
  8
_0-0_0
  6
CONTINUOUS
 62
    7
 10
-9.5620858440216097
 20
41.676952887470037
 11
-9.8165108440216073
 21
41.676952887470037
  0
LINE
  8
_0-0_0
  6
CONTINUOUS
 62
    7
 10
-9.8165108440216073
 20
41.676952887470037
 11
-9.8165108440216073
 21
41.171727887470027
  0
ARC
  8
_0-0_0
  6
CONTINUOUS
 62
    7
 10
-9.5883975006995712
 20
41.180845350489534
 40
0.2282954785655529
 50
182.28883690929501
 51
278.32049085550352
  0
LINE
  8
_0-0_0
  6
CONTINUOUS
 62
    7
 10
-12.900385844021613
 20
41.548127887470031
 11
-12.637860844021631
 21
41.548127887470031
  0
LINE
  8
_0-0_0
  6
CONTINUOUS
 62
    7
 10
-12.637860844021631
 20
41.548127887470031
 11
-12.637860844021631
 21
41.675402887470028
  0
LINE
  8
_0-0_0
  6
CONTINUOUS
 62
    7
 10
-12.637860844021631
 20
41.675402887470028
 11
-13.469335844021614
 21
41.675402887470028
  0
LINE
  8
_0-0_0
  6
CONTINUOUS
 62
    7
 10
-13.469335844021614
 20
41.675402887470028
 11
-13.469335844021614
 21
41.548127887470031
  0
LINE
  8
_0-0_0
  6
CONTINUOUS
 62
    7
 10
-13.469335844021614
 20
41.548127887470031
 11
-13.189410844021623
 21
41.548127887470031
  0
LINE
  8
_0-0_0
  6
CONTINUOUS
 62
    7
 10
-13.189410844021623
 20
41.548127887470031
 11
-13.187860844021614
 21
40.952202887470037
  0
LINE
  8
_0-0_0
  6
CONTINUOUS
 62
    7
 10
-13.187860844021614
 20
40.952202887470037
 11
-12.901060844021615
 21
40.952202887470037
  0
LINE
  8
_0-0_0
  6
CONTINUOUS
 62
    7
 10
-12.901060844021615
 20
40.952202887470037
 11
-12.900385844021613
 21
41.548127887470031
  0
LINE
  8
_0-0_0
  6
CONTINUOUS
 62
    7
 10
-11.832735844021627
 20
41.127652887470035
 11
-11.832735844021627
 21
41.672127887470026
  0
LINE
  8
_0-0_0
  6
CONTINUOUS
 62
    7
 10
-11.832735844021627
 20
41.672127887470026
 11
-12.090610844021612
 21
41.672127887470026
  0
LINE
  8
_0-0_0
  6
CONTINUOUS
 62
    7
 10
-12.090610844021612
 20
41.672127887470026
 11
-12.804085844021628
 21
40.955727887470033
  0
LINE
  8
_0-0_0
  6
CONTINUOUS
 62
    7
 10
-12.804085844021628
 20
40.955727887470033
 11
-12.561560844021628
 21
40.955727887470033
  0
LINE
  8
_0-0_0
  6
CONTINUOUS
 62
    7
 10
-12.561560844021628
 20
40.955727887470033
 11
-12.114885844021629
 21
41.402377887470038
  0
LINE
  8
_0-0_0
  6
CONTINUOUS
 62
    7
 10
-12.114885844021629
 20
41.402377887470038
 11
-12.114885844021629
 21
41.187252887470038
  0
ARC
  8
_0-0_0
  6
CONTINUOUS
 62
    7
 10
-12.183157188340928
 20
41.200575735320555
 40
0.0695591455526504
 50
265.27596310256354
 51
348.95775826397636
  0
LINE
  8
_0-0_0
  6
CONTINUOUS
 62
    7
 10
-12.188885844021613
 20
41.131252887470026
 11
-12.28981084402163
 21
41.131252887470026
  0
LINE
  8
_0-0_0
  6
CONTINUOUS
 62
    7
 10
-12.28981084402163
 20
41.131252887470026
 11
-12.465610844021612
 21
40.958327887470034
  0
LINE
  8
_0-0_0
  6
CONTINUOUS
 62
    7
 10
-12.465610844021612
 20
40.958327887470034
 11
-12.035560844021617
 21
40.958327887470034
  0
ARC
  8
_0-0_0
  6
CONTINUOUS
 62
    7
 10
-12.021785509285465
 20
41.14796607354495
 40
0.19013784858591
 50
265.84532670845721
 51
353.86715879565435
  0
LINE
  8
_0-0_0
  6
CONTINUOUS
 62
    7
 10
-11.157160844021618
 20
41.548127887470031
 11
-10.89481084402162
 21
41.548127887470031
  0
LINE
  8
_0-0_0
  6
CONTINUOUS
 62
    7
 10
-10.89481084402162
 20
41.548127887470031
 11
-10.89481084402162
 21
41.675402887470028
  0
LINE
  8
_0-0_0
  6
CONTINUOUS
 62
    7
 10
-10.89481084402162
 20
41.675402887470028
 11
-11.726035844021609
 21
41.675402887470028
  0
LINE
  8
_0-0_0
  6
CONTINUOUS
 62
    7
 10
-11.726035844021609
 20
41.675402887470028
 11
-11.726035844021609
 21
41.548127887470031
  0
LINE
  8
_0-0_0
  6
CONTINUOUS
 62
    7
 10
-11.726035844021609
 20
41.548127887470031
 11
-11.446285844021631
 21
41.548127887470031
  0
LINE
  8
_0-0_0
  6
CONTINUOUS
 62
    7
 10
-11.446285844021631
 20
41.548127887470031
 11
-11.444660844021612
 21
40.952202887470037
  0
LINE
  8
_0-0_0
  6
CONTINUOUS
 62
    7
 10
-11.444660844021612
 20
40.952202887470037
 11
-11.156810844021621
 21
40.952202887470037
  0
LINE
  8
_0-0_0
  6
CONTINUOUS
 62
    7
 10
-11.156810844021621
 20
40.952202887470037
 11
-11.157160844021618
 21
41.548127887470031
  0
LINE
  8
_0-0_0
  6
CONTINUOUS
 62
    7
 10
-10.931335844021632
 20
41.665927887470033
 11
-10.896010844021632
 21
41.677827887470031
  0
LINE
  8
_0-0_0
  6
CONTINUOUS
 62
    7
 10
-10.896010844021632
 20
41.677827887470031
 11
-10.896010844021632
 21
41.551127887470031
  0
LINE
  8
_0-0_0
  6
CONTINUOUS
 62
    7
 10
-10.896010844021632
 20
41.551127887470031
 11
-10.931860844021614
 21
41.568777887470034
  0
LINE
  8
_0-0_0
  6
CONTINUOUS
 62
    7
 10
-10.931860844021614
 20
41.568777887470034
 11
-10.943035844021622
 21
41.656302887470034
  0
LINE
  8
_0-0_0
  6
CONTINUOUS
 62
    7
 10
-10.943035844021622
 20
41.656302887470034
 11
-10.931335844021632
 21
41.665927887470033
  0
ARC
  8
_0-0_0
  6
CONTINUOUS
 62
    7
 10
-10.104209379275275
 20
41.08017958981921
 40
0.1647915302072615
 50
6.6026701132242627
 51
61.72060548921813
  0
ARC
  8
_0-0_0
  6
CONTINUOUS
 62
    7
 10
-10.071478005551498
 20
41.091075316410596
 40
0.1312144858613477
 50
305.96828156251377
 51
3.5184258313814256
  0
ARC
  8
_0-0_0
  6
CONTINUOUS
 62
    7
 10
-10.131371180227021
 20
41.204922429183824
 40
0.2591866779592078
 50
266.38002127882612
 51
301.89900005294163
  0
LINE
  8
_0-0_0
  6
CONTINUOUS
 62
    7
 10
-10.147735844021625
 20
40.946252887470038
 11
-10.764585844021624
 21
40.946252887470038
  0
LINE
  8
_0-0_0
  6
CONTINUOUS
 62
    7
 10
-10.764585844021624
 20
40.946252887470038
 11
-10.692235844021624
 21
41.042802887470032
  0
LINE
  8
_0-0_0
  6
CONTINUOUS
 62
    7
 10
-10.692235844021624
 20
41.042802887470032
 11
-10.212160844021625
 21
41.042802887470032
  0
LINE
  8
_0-0_0
  6
CONTINUOUS
 62
    7
 10
-10.212160844021625
 20
41.042802887470032
 11
-10.709810844021618
 21
41.413927887470038
  0
ARC
  8
_0-0_0
  6
CONTINUOUS
 62
    7
 10
-10.63889235823298
 20
41.529708717618178
 40
0.1357741958412798
 50
181.97566971165597
 51
238.5115491908719
  0
ARC
  8
_0-0_0
  6
CONTINUOUS
 62
    7
 10
-10.63602725022254
 20
41.525539988705617
 40
0.1385595401379874
 50
123.87643252130042
 51
180.21175955298503
  0
ARC
  8
_0-0_0
  6
CONTINUOUS
 62
    7
 10
-10.578862408757416
 20
41.418469352802163
 40
0.2596057406410302
 50
87.499398812447353
 51
121.17823827595538
  0
LINE
  8
_0-0_0
  6
CONTINUOUS
 62
    7
 10
-10.567535844021634
 20
41.677827887470031
 11
-9.9596358440216335
 21
41.677827887470031
  0
LINE
  8
_0-0_0
  6
CONTINUOUS
 62
    7
 10
-9.9596358440216335
 20
41.677827887470031
 11
-10.043535844021633
 21
41.577052887470032
  0
LINE
  8
_0-0_0
  6
CONTINUOUS
 62
    7
 10
-10.043535844021633
 20
41.577052887470032
 11
-10.513785844021626
 21
41.577052887470032
  0
LINE
  8
_0-0_0
  6
CONTINUOUS
 62
    7
 10
-10.513785844021626
 20
41.577052887470032
 11
-10.026135844021624
 21
41.225302887470036
  0
LINE
  8
_0-0_0
  6
CONTINUOUS
 62
    7
 10
-8.2963608440216348
 20
41.548127887470031
 11
-8.033835844021624
 21
41.548127887470031
  0
LINE
  8
_0-0_0
  6
CONTINUOUS
 62
    7
 10
-8.033835844021624
 20
41.548127887470031
 11
-8.033835844021624
 21
41.675402887470028
  0
LINE
  8
_0-0_0
  6
CONTINUOUS
 62
    7
 10
-8.033835844021624
 20
41.675402887470028
 11
-8.8651358440216228
 21
41.675402887470028
  0
LINE
  8
_0-0_0
  6
CONTINUOUS
 62
    7
 10
-8.8651358440216228
 20
41.675402887470028
 11
-8.8651358440216228
 21
41.548127887470031
  0
LINE
  8
_0-0_0
  6
CONTINUOUS
 62
    7
 10
-8.8651358440216228
 20
41.548127887470031
 11
-8.5853858440216158
 21
41.548127887470031
  0
LINE
  8
_0-0_0
  6
CONTINUOUS
 62
    7
 10
-8.5853858440216158
 20
41.548127887470031
 11
-8.5866108440216209
 21
40.952202887470037
  0
LINE
  8
_0-0_0
  6
CONTINUOUS
 62
    7
 10
-8.5866108440216209
 20
40.952202887470037
 11
-8.2949608440216167
 21
40.952202887470037
  0
LINE
  8
_0-0_0
  6
CONTINUOUS
 62
    7
 10
-8.2949608440216167
 20
40.952202887470037
 11
-8.2963608440216348
 21
41.548127887470031
  0
LINE
  8
_0-0_0
  6
CONTINUOUS
 62
    7
 10
-7.1842858440216233
 20
41.127652887470035
 11
-7.1842858440216233
 21
41.672127887470026
  0
LINE
  8
_0-0_0
  6
CONTINUOUS
 62
    7
 10
-7.1842858440216233
 20
41.672127887470026
 11
-7.4419608440216081
 21
41.672127887470026
  0
LINE
  8
_0-0_0
  6
CONTINUOUS
 62
    7
 10
-7.4419608440216081
 20
41.672127887470026
 11
-8.1554358440216248
 21
40.955727887470033
  0
LINE
  8
_0-0_0
  6
CONTINUOUS
 62
    7
 10
-8.1554358440216248
 20
40.955727887470033
 11
-7.9129108440216243
 21
40.955727887470033
  0
LINE
  8
_0-0_0
  6
CONTINUOUS
 62
    7
 10
-7.9129108440216243
 20
40.955727887470033
 11
-7.4662608440216189
 21
41.402377887470038
  0
LINE
  8
_0-0_0
  6
CONTINUOUS
 62
    7
 10
-7.4662608440216189
 20
41.402377887470038
 11
-7.4662608440216189
 21
41.187252887470038
  0
ARC
  8
_0-0_0
  6
CONTINUOUS
 62
    7
 10
-7.5344696703262883
 20
41.200503374325663
 40
0.0694839505768903
 50
265.30185131632413
 51
349.00644790856262
  0
LINE
  8
_0-0_0
  6
CONTINUOUS
 62
    7
 10
-7.5401608440216279
 20
41.131252887470026
 11
-7.6412608440216303
 21
41.131252887470026
  0
LINE
  8
_0-0_0
  6
CONTINUOUS
 62
    7
 10
-7.6412608440216303
 20
41.131252887470026
 11
-7.817135844021621
 21
40.958327887470034
  0
LINE
  8
_0-0_0
  6
CONTINUOUS
 62
    7
 10
-7.817135844021621
 20
40.958327887470034
 11
-7.38718584402163
 21
40.958327887470034
  0
ARC
  8
_0-0_0
  6
CONTINUOUS
 62
    7
 10
-7.3733882390274204
 20
41.148023140735503
 40
0.1901963801312447
 50
265.83988101694513
 51
353.85176297025549
  0
LINE
  8
_0-0_0
  6
CONTINUOUS
 62
    7
 10
-10.618785844021616
 20
45.77197788747003
 11
-10.618785844021616
 21
46.320352887470037
  0
LINE
  8
_0-0_0
  6
CONTINUOUS
 62
    7
 10
-10.618785844021616
 20
46.320352887470037
 11
-10.141635844021621
 21
46.320352887470037
  0
LINE
  8
_0-0_0
  6
CONTINUOUS
 62
    7
 10
-10.141635844021621
 20
46.320352887470037
 11
-10.141635844021621
 21
46.226902887470033
  0
LINE
  8
_0-0_0
  6
CONTINUOUS
 62
    7
 10
-10.141635844021621
 20
46.226902887470033
 11
-10.51026084402163
 21
46.226902887470033
  0
LINE
  8
_0-0_0
  6
CONTINUOUS
 62
    7
 10
-10.51026084402163
 20
46.226902887470033
 11
-10.51026084402163
 21
46.104502887470034
  0
LINE
  8
_0-0_0
  6
CONTINUOUS
 62
    7
 10
-10.51026084402163
 20
46.104502887470034
 11
-10.294935844021623
 21
46.104502887470034
  0
LINE
  8
_0-0_0
  6
CONTINUOUS
 62
    7
 10
-10.294935844021623
 20
46.104502887470034
 11
-10.294935844021623
 21
46.011152887470033
  0
LINE
  8
_0-0_0
  6
CONTINUOUS
 62
    7
 10
-10.294935844021623
 20
46.011152887470033
 11
-10.51026084402163
 21
46.011152887470033
  0
LINE
  8
_0-0_0
  6
CONTINUOUS
 62
    7
 10
-10.51026084402163
 20
46.011152887470033
 11
-10.51026084402163
 21
45.875152887470037
  0
LINE
  8
_0-0_0
  6
CONTINUOUS
 62
    7
 10
-10.51026084402163
 20
45.875152887470037
 11
-10.137160844021608
 21
45.875152887470037
  0
LINE
  8
_0-0_0
  6
CONTINUOUS
 62
    7
 10
-10.137160844021608
 20
45.875152887470037
 11
-10.137160844021608
 21
45.77197788747003
  0
LINE
  8
_0-0_0
  6
CONTINUOUS
 62
    7
 10
-10.137160844021608
 20
45.77197788747003
 11
-10.618785844021616
 21
45.77197788747003
  0
LINE
  8
_0-0_0
  6
CONTINUOUS
 62
    7
 10
-11.252510844021614
 20
45.77197788747003
 11
-11.252510844021614
 21
46.320352887470037
  0
LINE
  8
_0-0_0
  6
CONTINUOUS
 62
    7
 10
-11.252510844021614
 20
46.320352887470037
 11
-10.853910844021627
 21
46.320352887470037
  0
ARC
  8
_0-0_0
  6
CONTINUOUS
 62
    7
 10
-10.83784583375008
 20
46.230494739412222
 40
0.091282919143753
 50
45.143427993372491
 51
100.13635759465038
  0
ARC
  8
_0-0_0
  6
CONTINUOUS
 62
    7
 10
-10.878764125550177
 20
46.218372169326898
 40
0.1303523699480272
 50
358.06814777828083
 51
36.115003062768132
  0
LINE
  8
_0-0_0
  6
CONTINUOUS
 62
    7
 10
-10.74848584402163
 20
46.213977887470037
 11
-10.74848584402163
 21
46.085302887470036
  0
ARC
  8
_0-0_0
  6
CONTINUOUS
 62
    7
 10
-10.841459220801497
 20
46.069659694419727
 40
0.0942802114903314
 50
316.156704004895
 51
9.5508190985497965
  0
ARC
  8
_0-0_0
  6
CONTINUOUS
 62
    7
 10
-10.849468518597988
 20
46.105361312234862
 40
0.1264115044921964
 50
267.98610960410645
 51
306.96103899722129
  0
LINE
  8
_0-0_0
  6
CONTINUOUS
 62
    7
 10
-10.853910844021627
 20
45.979027887470039
 11
-10.914710844021627
 21
45.979027887470039
  0
LINE
  8
_0-0_0
  6
CONTINUOUS
 62
    7
 10
-10.914710844021627
 20
45.979027887470039
 11
-10.699560844021633
 21
45.77197788747003
  0
LINE
  8
_0-0_0
  6
CONTINUOUS
 62
    7
 10
-10.699560844021633
 20
45.77197788747003
 11
-10.85511084402161
 21
45.77197788747003
  0
LINE
  8
_0-0_0
  6
CONTINUOUS
 62
    7
 10
-10.85511084402161
 20
45.77197788747003
 11
-11.043035844021617
 21
45.979027887470039
  0
LINE
  8
_0-0_0
  6
CONTINUOUS
 62
    7
 10
-11.043035844021617
 20
45.979027887470039
 11
-11.145710844021622
 21
45.979027887470039
  0
LINE
  8
_0-0_0
  6
CONTINUOUS
 62
    7
 10
-11.145710844021622
 20
45.979027887470039
 11
-11.145710844021622
 21
45.77197788747003
  0
LINE
  8
_0-0_0
  6
CONTINUOUS
 62
    7
 10
-11.145710844021622
 20
45.77197788747003
 11
-11.252510844021614
 21
45.77197788747003
  0
LINE
  8
_0-0_0
  6
CONTINUOUS
 62
    7
 10
-10.901960844021616
 20
46.225352887470038
 11
-11.145710844021622
 21
46.225352887470038
  0
LINE
  8
_0-0_0
  6
CONTINUOUS
 62
    7
 10
-11.145710844021622
 20
46.225352887470038
 11
-11.145710844021622
 21
46.072902887470036
  0
LINE
  8
_0-0_0
  6
CONTINUOUS
 62
    7
 10
-11.145710844021622
 20
46.072902887470036
 11
-10.901960844021616
 21
46.072902887470036
  0
LINE
  8
_0-0_0
  6
CONTINUOUS
 62
    7
 10
-10.901960844021616
 20
46.072902887470036
 11
-10.863385844021607
 21
46.082452887470026
  0
LINE
  8
_0-0_0
  6
CONTINUOUS
 62
    7
 10
-10.863385844021607
 20
46.082452887470026
 11
-10.853035844021619
 21
46.116477887470026
  0
LINE
  8
_0-0_0
  6
CONTINUOUS
 62
    7
 10
-10.853035844021619
 20
46.116477887470026
 11
-10.853035844021619
 21
46.182277887470036
  0
LINE
  8
_0-0_0
  6
CONTINUOUS
 62
    7
 10
-10.853035844021619
 20
46.182277887470036
 11
-10.863385844021607
 21
46.21577788747004
  0
LINE
  8
_0-0_0
  6
CONTINUOUS
 62
    7
 10
-10.863385844021607
 20
46.21577788747004
 11
-10.901960844021616
 21
46.225352887470038
  0
LINE
  8
_0-0_0
  6
CONTINUOUS
 62
    7
 10
-9.6233108440216171
 20
46.224327887470039
 11
-9.9283858440216335
 21
46.224327887470039
  0
LINE
  8
_0-0_0
  6
CONTINUOUS
 62
    7
 10
-9.9283858440216335
 20
46.224327887470039
 11
-9.9283858440216335
 21
46.106577887470038
  0
LINE
  8
_0-0_0
  6
CONTINUOUS
 62
    7
 10
-9.9283858440216335
 20
46.106577887470038
 11
-9.6377858440216215
 21
46.106577887470038
  0
ARC
  8
_0-0_0
  6
CONTINUOUS
 62
    7
 10
-9.6148567651444381
 20
46.014768481913592
 40
0.0946293274137694
 50
42.832465326363547
 51
104.0225732425304
  0
ARC
  8
_0-0_0
  6
CONTINUOUS
 62
    7
 10
-9.7082339955600929
 20
45.986736550285826
 40
0.1871540518038387
 50
357.00344068322022
 51
29.57293320089817
  0
LINE
  8
_0-0_0
  6
CONTINUOUS
 62
    7
 10
-9.5213358440216069
 20
45.976952887470034
 11
-9.5213358440216069
 21
45.901677887470029
  0
LINE
  8
_0-0_0
  6
CONTINUOUS
 62
    7
 10
-9.5213358440216069
 20
45.901677887470029
 11
-9.5454608440216333
 21
45.799527887470035
  0
ARC
  8
_0-0_0
  6
CONTINUOUS
 62
    7
 10
-9.6284360849701756
 20
45.909118996656048
 40
0.1374594551971314
 50
266.09982693109328
 51
307.13063049163816
  0
LINE
  8
_0-0_0
  6
CONTINUOUS
 62
    7
 10
-9.6377858440216215
 20
45.77197788747003
 11
-9.9257858440216324
 21
45.77197788747003
  0
ARC
  8
_0-0_0
  6
CONTINUOUS
 62
    7
 10
-9.9487308734642141
 20
45.863621772441988
 40
0.0944726205250677
 50
222.72176027291661
 51
284.05628236875617
  0
ARC
  8
_0-0_0
  6
CONTINUOUS
 62
    7
 10
-9.8551496460781181
 20
45.891898750127297
 40
0.1873416050644448
 50
177.00782930437143
 51
209.54197983220584
  0
LINE
  8
_0-0_0
  6
CONTINUOUS
 62
    7
 10
-10.042235844021619
 20
45.901677887470029
 11
-10.042235844021619
 21
45.91667788747003
  0
LINE
  8
_0-0_0
  6
CONTINUOUS
 62
    7
 10
-10.042235844021619
 20
45.91667788747003
 11
-9.9464608440216153
 21
45.940102887470033
  0
LINE
  8
_0-0_0
  6
CONTINUOUS
 62
    7
 10
-9.9464608440216153
 20
45.940102887470033
 11
-9.9464608440216153
 21
45.875152887470037
  0
LINE
  8
_0-0_0
  6
CONTINUOUS
 62
    7
 10
-9.9464608440216153
 20
45.875152887470037
 11
-9.6171108440216102
 21
45.875152887470037
  0
LINE
  8
_0-0_0
  6
CONTINUOUS
 62
    7
 10
-9.6171108440216102
 20
45.875152887470037
 11
-9.6171108440216102
 21
46.000202887470039
  0
LINE
  8
_0-0_0
  6
CONTINUOUS
 62
    7
 10
-9.6171108440216102
 20
46.000202887470039
 11
-9.9077108440216222
 21
46.000202887470039
  0
ARC
  8
_0-0_0
  6
CONTINUOUS
 62
    7
 10
-9.9304677105011621
 20
46.090598634843076
 40
0.0932162331093659
 50
222.37072371999594
 51
284.1304173437785
  0
ARC
  8
_0-0_0
  6
CONTINUOUS
 62
    7
 10
-9.8342766434692095
 20
46.12003651748114
 40
0.1890930842165528
 50
177.00151630211312
 51
209.2026875267228
  0
LINE
  8
_0-0_0
  6
CONTINUOUS
 62
    7
 10
-10.023110844021616
 20
46.129927887470032
 11
-10.023110844021616
 21
46.190652887470037
  0
LINE
  8
_0-0_0
  6
CONTINUOUS
 62
    7
 10
-10.023110844021616
 20
46.190652887470037
 11
-9.9993358440216156
 21
46.292877887470027
  0
ARC
  8
_0-0_0
  6
CONTINUOUS
 62
    7
 10
-9.9167345340693913
 20
46.183930229622064
 40
0.1367207685627203
 50
86.215677658084559
 51
127.16846786069644
  0
LINE
  8
_0-0_0
  6
CONTINUOUS
 62
    7
 10
-9.9077108440216222
 20
46.320352887470037
 11
-9.6431358440216144
 21
46.320352887470037
  0
ARC
  8
_0-0_0
  6
CONTINUOUS
 62
    7
 10
-9.6213801334650526
 20
46.22641582534105
 40
0.0964234545286817
 50
44.419219727724922
 51
103.0397359756377
  0
ARC
  8
_0-0_0
  6
CONTINUOUS
 62
    7
 10
-9.6865968532359403
 20
46.207970198201025
 40
0.1592591754092226
 50
357.14145372548404
 51
32.654891280219395
  0
LINE
  8
_0-0_0
  6
CONTINUOUS
 62
    7
 10
-9.5275358440216138
 20
46.200027887470029
 11
-9.5275358440216138
 21
46.188577887470032
  0
LINE
  8
_0-0_0
  6
CONTINUOUS
 62
    7
 10
-9.5275358440216138
 20
46.188577887470032
 11
-9.6233108440216171
 21
46.162127887470035
  0
LINE
  8
_0-0_0
  6
CONTINUOUS
 62
    7
 10
-9.6233108440216171
 20
46.162127887470035
 11
-9.6233108440216171
 21
46.224327887470039
  0
LINE
  8
_0-0_0
  6
CONTINUOUS
 62
    7
 10
-9.3868108440216105
 20
45.77197788747003
 11
-9.3868108440216105
 21
46.320352887470037
  0
LINE
  8
_0-0_0
  6
CONTINUOUS
 62
    7
 10
-9.3868108440216105
 20
46.320352887470037
 11
-8.9096608440216158
 21
46.320352887470037
  0
LINE
  8
_0-0_0
  6
CONTINUOUS
 62
    7
 10
-8.9096608440216158
 20
46.320352887470037
 11
-8.9096608440216158
 21
46.226902887470033
  0
LINE
  8
_0-0_0
  6
CONTINUOUS
 62
    7
 10
-8.9096608440216158
 20
46.226902887470033
 11
-9.2782858440216245
 21
46.226902887470033
  0
LINE
  8
_0-0_0
  6
CONTINUOUS
 62
    7
 10
-9.2782858440216245
 20
46.226902887470033
 11
-9.2782858440216245
 21
46.104502887470034
  0
LINE
  8
_0-0_0
  6
CONTINUOUS
 62
    7
 10
-9.2782858440216245
 20
46.104502887470034
 11
-9.0631358440216303
 21
46.104502887470034
  0
LINE
  8
_0-0_0
  6
CONTINUOUS
 62
    7
 10
-9.0631358440216303
 20
46.104502887470034
 11
-9.0631358440216303
 21
46.011152887470033
  0
LINE
  8
_0-0_0
  6
CONTINUOUS
 62
    7
 10
-9.0631358440216303
 20
46.011152887470033
 11
-9.2782858440216245
 21
46.011152887470033
  0
LINE
  8
_0-0_0
  6
CONTINUOUS
 62
    7
 10
-9.2782858440216245
 20
46.011152887470033
 11
-9.2782858440216245
 21
45.875152887470037
  0
LINE
  8
_0-0_0
  6
CONTINUOUS
 62
    7
 10
-9.2782858440216245
 20
45.875152887470037
 11
-8.9051858440216307
 21
45.875152887470037
  0
LINE
  8
_0-0_0
  6
CONTINUOUS
 62
    7
 10
-8.9051858440216307
 20
45.875152887470037
 11
-8.9051858440216307
 21
45.77197788747003
  0
LINE
  8
_0-0_0
  6
CONTINUOUS
 62
    7
 10
-8.9051858440216307
 20
45.77197788747003
 11
-9.3868108440216105
 21
45.77197788747003
  0
LINE
  8
_0-0_0
  6
CONTINUOUS
 62
    7
 10
-8.5241608440216083
 20
46.222252887470034
 11
-8.5241608440216083
 21
45.77197788747003
  0
LINE
  8
_0-0_0
  6
CONTINUOUS
 62
    7
 10
-8.5241608440216083
 20
45.77197788747003
 11
-8.6326858440216228
 21
45.77197788747003
  0
LINE
  8
_0-0_0
  6
CONTINUOUS
 62
    7
 10
-8.6326858440216228
 20
45.77197788747003
 11
-8.6326858440216228
 21
46.222252887470034
  0
LINE
  8
_0-0_0
  6
CONTINUOUS
 62
    7
 10
-8.6326858440216228
 20
46.222252887470034
 11
-8.8464358440216273
 21
46.222252887470034
  0
LINE
  8
_0-0_0
  6
CONTINUOUS
 62
    7
 10
-8.8464358440216273
 20
46.222252887470034
 11
-8.8464358440216273
 21
46.320352887470037
  0
LINE
  8
_0-0_0
  6
CONTINUOUS
 62
    7
 10
-8.8464358440216273
 20
46.320352887470037
 11
-8.3093608440216116
 21
46.320352887470037
  0
LINE
  8
_0-0_0
  6
CONTINUOUS
 62
    7
 10
-8.3093608440216116
 20
46.320352887470037
 11
-8.3093608440216116
 21
46.222252887470034
  0
LINE
  8
_0-0_0
  6
CONTINUOUS
 62
    7
 10
-8.3093608440216116
 20
46.222252887470034
 11
-8.5241608440216083
 21
46.222252887470034
  0
LINE
  8
_0-0_0
  6
CONTINUOUS
 62
    7
 10
-5.4244358440216232
 20
49.271927887470028
 11
-5.4244358440216232
 21
49.820302887470035
  0
LINE
  8
_0-0_0
  6
CONTINUOUS
 62
    7
 10
-5.4244358440216232
 20
49.820302887470035
 11
-5.0258358440216071
 21
49.820302887470035
  0
ARC
  8
_0-0_0
  6
CONTINUOUS
 62
    7
 10
-5.0098957383900782
 20
49.73004519355581
 40
0.0916544504007232
 50
45.264247688706476
 51
100.01553789932147
  0
ARC
  8
_0-0_0
  6
CONTINUOUS
 62
    7
 10
-5.0506593775670936
 20
49.718331316213678
 40
0.130322947616467
 50
358.06368779661761
 51
36.11946304442899
  0
LINE
  8
_0-0_0
  6
CONTINUOUS
 62
    7
 10
-4.9204108440216103
 20
49.713927887470021
 11
-4.9204108440216103
 21
49.591502887470028
  0
ARC
  8
_0-0_0
  6
CONTINUOUS
 62
    7
 10
-5.0116454414837719
 20
49.575563612939561
 40
0.0926164793470304
 50
315.67755571938642
 51
9.9099264511857204
  0
ARC
  8
_0-0_0
  6
CONTINUOUS
 62
    7
 10
-5.0215473348136968
 20
49.612978708272493
 40
0.1273980217830968
 50
268.07092839209508
 51
306.71415312263747
  0
LINE
  8
_0-0_0
  6
CONTINUOUS
 62
    7
 10
-5.0258358440216071
 20
49.485652887470025
 11
-5.317810844021615
 21
49.485652887470025
  0
LINE
  8
_0-0_0
  6
CONTINUOUS
 62
    7
 10
-5.317810844021615
 20
49.485652887470025
 11
-5.317810844021615
 21
49.271927887470028
  0
LINE
  8
_0-0_0
  6
CONTINUOUS
 62
    7
 10
-5.317810844021615
 20
49.271927887470028
 11
-5.4244358440216232
 21
49.271927887470028
  0
LINE
  8
_0-0_0
  6
CONTINUOUS
 62
    7
 10
-5.0738858440216248
 20
49.725352887470038
 11
-5.317810844021615
 21
49.725352887470038
  0
LINE
  8
_0-0_0
  6
CONTINUOUS
 62
    7
 10
-5.317810844021615
 20
49.725352887470038
 11
-5.317810844021615
 21
49.580102887470019
  0
LINE
  8
_0-0_0
  6
CONTINUOUS
 62
    7
 10
-5.317810844021615
 20
49.580102887470019
 11
-5.0738858440216248
 21
49.580102887470019
  0
LINE
  8
_0-0_0
  6
CONTINUOUS
 62
    7
 10
-5.0738858440216248
 20
49.580102887470019
 11
-5.0353108440216161
 21
49.58970288747004
  0
LINE
  8
_0-0_0
  6
CONTINUOUS
 62
    7
 10
-5.0353108440216161
 20
49.58970288747004
 11
-5.0249858440216215
 21
49.623677887470038
  0
LINE
  8
_0-0_0
  6
CONTINUOUS
 62
    7
 10
-5.0249858440216215
 20
49.623677887470038
 11
-5.0249858440216215
 21
49.682277887470036
  0
LINE
  8
_0-0_0
  6
CONTINUOUS
 62
    7
 10
-5.0249858440216215
 20
49.682277887470036
 11
-5.0353108440216161
 21
49.715752887470032
  0
LINE
  8
_0-0_0
  6
CONTINUOUS
 62
    7
 10
-5.0353108440216161
 20
49.715752887470032
 11
-5.0738858440216248
 21
49.725352887470038
  0
LINE
  8
_0-0_0
  6
CONTINUOUS
 62
    7
 10
-6.1367108440216143
 20
49.690602887470021
 11
-6.1129358440216279
 21
49.792777887470038
  0
ARC
  8
_0-0_0
  6
CONTINUOUS
 62
    7
 10
-6.0305094344137515
 20
49.684668663925493
 40
0.1359474796244944
 50
86.109680831395821
 51
127.32321693185291
  0
LINE
  8
_0-0_0
  6
CONTINUOUS
 62
    7
 10
-6.0212858440216124
 20
49.820302887470035
 11
-5.678160844021626
 21
49.820302887470035
  0
ARC
  8
_0-0_0
  6
CONTINUOUS
 62
    7
 10
-5.6555717307595117
 20
49.728795086741997
 40
0.0942546849342131
 50
42.752194015130812
 51
103.86649637277499
  0
ARC
  8
_0-0_0
  6
CONTINUOUS
 62
    7
 10
-5.7515146919038429
 20
49.700494810803534
 40
0.1891876309628589
 50
357.00284835560518
 51
29.195164988292003
  0
LINE
  8
_0-0_0
  6
CONTINUOUS
 62
    7
 10
-5.5625858440216192
 20
49.690602887470021
 11
-5.5625858440216192
 21
49.401652887470021
  0
LINE
  8
_0-0_0
  6
CONTINUOUS
 62
    7
 10
-5.5625858440216192
 20
49.401652887470021
 11
-5.5863608440216197
 21
49.299152887470029
  0
ARC
  8
_0-0_0
  6
CONTINUOUS
 62
    7
 10
-5.6691134210316605
 20
49.409803622346871
 40
0.1381722625225124
 50
266.24562637753354
 51
306.79178252331582
  0
LINE
  8
_0-0_0
  6
CONTINUOUS
 62
    7
 10
-5.678160844021626
 20
49.271927887470028
 11
-6.0212858440216124
 21
49.271927887470028
  0
ARC
  8
_0-0_0
  6
CONTINUOUS
 62
    7
 10
-6.0441869158700925
 20
49.362711297115098
 40
0.0936273814575288
 50
222.75339462813849
 51
284.15807903956204
  0
ARC
  8
_0-0_0
  6
CONTINUOUS
 62
    7
 10
-5.9482522149940209
 20
49.391358776178606
 40
0.1887395654923471
 50
176.873459230458
 51
209.24433854743387
  0
LINE
  8
_0-0_0
  6
CONTINUOUS
 62
    7
 10
-6.1367108440216143
 20
49.401652887470021
 11
-6.1367108440216143
 21
49.690602887470021
  0
LINE
  8
_0-0_0
  6
CONTINUOUS
 62
    7
 10
-6.028360844021627
 20
49.375152887470023
 11
-5.6705858440216232
 21
49.375152887470023
  0
LINE
  8
_0-0_0
  6
CONTINUOUS
 62
    7
 10
-5.6705858440216232
 20
49.375152887470023
 11
-5.6705858440216232
 21
49.722252887470034
  0
LINE
  8
_0-0_0
  6
CONTINUOUS
 62
    7
 10
-5.6705858440216232
 20
49.722252887470034
 11
-6.028360844021627
 21
49.722252887470034
  0
LINE
  8
_0-0_0
  6
CONTINUOUS
 62
    7
 10
-6.028360844021627
 20
49.722252887470034
 11
-6.028360844021627
 21
49.375152887470023
  0
LINE
  8
_0-0_0
  6
CONTINUOUS
 62
    7
 10
-6.4023358440216143
 20
49.722252887470034
 11
-6.4023358440216143
 21
49.271927887470028
  0
LINE
  8
_0-0_0
  6
CONTINUOUS
 62
    7
 10
-6.4023358440216143
 20
49.271927887470028
 11
-6.5108358440216207
 21
49.271927887470028
  0
LINE
  8
_0-0_0
  6
CONTINUOUS
 62
    7
 10
-6.5108358440216207
 20
49.271927887470028
 11
-6.5108358440216207
 21
49.722252887470034
  0
LINE
  8
_0-0_0
  6
CONTINUOUS
 62
    7
 10
-6.5108358440216207
 20
49.722252887470034
 11
-6.724610844021619
 21
49.722252887470034
  0
LINE
  8
_0-0_0
  6
CONTINUOUS
 62
    7
 10
-6.724610844021619
 20
49.722252887470034
 11
-6.724610844021619
 21
49.820302887470035
  0
LINE
  8
_0-0_0
  6
CONTINUOUS
 62
    7
 10
-6.724610844021619
 20
49.820302887470035
 11
-6.1875108440216096
 21
49.820302887470035
  0
LINE
  8
_0-0_0
  6
CONTINUOUS
 62
    7
 10
-6.1875108440216096
 20
49.820302887470035
 11
-6.1875108440216096
 21
49.722252887470034
  0
LINE
  8
_0-0_0
  6
CONTINUOUS
 62
    7
 10
-6.1875108440216096
 20
49.722252887470034
 11
-6.4023358440216143
 21
49.722252887470034
  0
LINE
  8
_0-0_0
  6
CONTINUOUS
 62
    7
 10
-6.8737858440216186
 20
49.724327887470025
 11
-7.1790108440216116
 21
49.724327887470025
  0
LINE
  8
_0-0_0
  6
CONTINUOUS
 62
    7
 10
-7.1790108440216116
 20
49.724327887470025
 11
-7.1790108440216116
 21
49.606527887470037
  0
LINE
  8
_0-0_0
  6
CONTINUOUS
 62
    7
 10
-7.1790108440216116
 20
49.606527887470037
 11
-6.8884358440216218
 21
49.606527887470037
  0
ARC
  8
_0-0_0
  6
CONTINUOUS
 62
    7
 10
-6.8653618900656781
 20
49.514763662844913
 40
0.0946207179861246
 50
42.800000483992022
 51
104.11431448708937
  0
ARC
  8
_0-0_0
  6
CONTINUOUS
 62
    7
 10
-6.9585369333327876
 20
49.487044444587681
 40
0.1868279096034958
 50
356.88061231696003
 51
29.503516068133621
  0
LINE
  8
_0-0_0
  6
CONTINUOUS
 62
    7
 10
-6.7719858440216072
 20
49.476877887470039
 11
-6.7719858440216072
 21
49.401652887470021
  0
LINE
  8
_0-0_0
  6
CONTINUOUS
 62
    7
 10
-6.7719858440216072
 20
49.401652887470021
 11
-6.7959358440216207
 21
49.299452887470039
  0
ARC
  8
_0-0_0
  6
CONTINUOUS
 62
    7
 10
-6.8790637970864807
 20
49.409621746543593
 40
0.1380124417953836
 50
266.10620397573473
 51
307.03639229640294
  0
LINE
  8
_0-0_0
  6
CONTINUOUS
 62
    7
 10
-6.8884358440216218
 20
49.271927887470028
 11
-7.1762608440216198
 21
49.271927887470028
  0
ARC
  8
_0-0_0
  6
CONTINUOUS
 62
    7
 10
-7.199237702365771
 20
49.363901671872043
 40
0.0948003852133249
 50
222.83088629230483
 51
284.02651743555924
  0
ARC
  8
_0-0_0
  6
CONTINUOUS
 62
    7
 10
-7.1061656889343894
 20
49.391462429684694
 40
0.1868232863333524
 50
176.87319418195617
 51
209.50470577206039
  0
LINE
  8
_0-0_0
  6
CONTINUOUS
 62
    7
 10
-7.2927108440216131
 20
49.401652887470021
 11
-7.2927108440216131
 21
49.41667788747003
  0
LINE
  8
_0-0_0
  6
CONTINUOUS
 62
    7
 10
-7.2927108440216131
 20
49.41667788747003
 11
-7.1971108440216156
 21
49.44000288747003
  0
LINE
  8
_0-0_0
  6
CONTINUOUS
 62
    7
 10
-7.1971108440216156
 20
49.44000288747003
 11
-7.1971108440216156
 21
49.375152887470023
  0
LINE
  8
_0-0_0
  6
CONTINUOUS
 62
    7
 10
-7.1971108440216156
 20
49.375152887470023
 11
-6.867585844021626
 21
49.375152887470023
  0
LINE
  8
_0-0_0
  6
CONTINUOUS
 62
    7
 10
-6.867585844021626
 20
49.375152887470023
 11
-6.867585844021626
 21
49.500202887470039
  0
LINE
  8
_0-0_0
  6
CONTINUOUS
 62
    7
 10
-6.867585844021626
 20
49.500202887470039
 11
-7.1581858440216095
 21
49.500202887470039
  0
ARC
  8
_0-0_0
  6
CONTINUOUS
 62
    7
 10
-7.1810061034867161
 20
49.591054861759545
 40
0.0936741451754836
 50
222.57607066696823
 51
284.09989372547352
  0
ARC
  8
_0-0_0
  6
CONTINUOUS
 62
    7
 10
-7.0844870188895257
 20
49.620048460868716
 40
0.1895314853793476
 50
177.01207377936976
 51
209.16738534040778
  0
LINE
  8
_0-0_0
  6
CONTINUOUS
 62
    7
 10
-7.2737608440216235
 20
49.629927887470032
 11
-7.2737608440216235
 21
49.690602887470021
  0
LINE
  8
_0-0_0
  6
CONTINUOUS
 62
    7
 10
-7.2737608440216235
 20
49.690602887470021
 11
-7.2499858440216229
 21
49.792777887470038
  0
ARC
  8
_0-0_0
  6
CONTINUOUS
 62
    7
 10
-7.167467165324787
 20
49.684411606203156
 40
0.1362078677958245
 50
86.092788654526146
 51
127.28852095756804
  0
LINE
  8
_0-0_0
  6
CONTINUOUS
 62
    7
 10
-7.1581858440216095
 20
49.820302887470035
 11
-6.893585844021608
 21
49.820302887470035
  0
ARC
  8
_0-0_0
  6
CONTINUOUS
 62
    7
 10
-6.8719987398458002
 20
49.725789030358555
 40
0.0969477810616904
 50
44.613843619206193
 51
102.86574696417429
  0
ARC
  8
_0-0_0
  6
CONTINUOUS
 62
    7
 10
-6.9393575831271832
 20
49.707633629367095
 40
0.1613546506376639
 50
357.2715973343802
 51
32.310091907981707
  0
LINE
  8
_0-0_0
  6
CONTINUOUS
 62
    7
 10
-6.7781858440216141
 20
49.699952887470033
 11
-6.7781858440216141
 21
49.68852788747003
  0
LINE
  8
_0-0_0
  6
CONTINUOUS
 62
    7
 10
-6.7781858440216141
 20
49.68852788747003
 11
-6.8737858440216186
 21
49.662102887470027
  0
LINE
  8
_0-0_0
  6
CONTINUOUS
 62
    7
 10
-6.8737858440216186
 20
49.662102887470027
 11
-6.8737858440216186
 21
49.724327887470025
  0
LINE
  8
_0-0_0
  6
CONTINUOUS
 62
    7
 10
-8.2728358440216283
 20
49.271927887470028
 11
-8.2728358440216283
 21
49.820302887470035
  0
LINE
  8
_0-0_0
  6
CONTINUOUS
 62
    7
 10
-8.2728358440216283
 20
49.820302887470035
 11
-7.8740608440216278
 21
49.820302887470035
  0
ARC
  8
_0-0_0
  6
CONTINUOUS
 62
    7
 10
-7.8580962193677664
 20
49.73018771352514
 40
0.091518379659258
 50
45.223469652712296
 51
100.04617200370711
  0
ARC
  8
_0-0_0
  6
CONTINUOUS
 62
    7
 10
-7.8992587504040017
 20
49.718223891324769
 40
0.1306685455669345
 50
358.1159409636229
 51
36.067209877416381
  0
LINE
  8
_0-0_0
  6
CONTINUOUS
 62
    7
 10
-7.7686608440216247
 20
49.713927887470021
 11
-7.7686608440216247
 21
49.585302887470021
  0
ARC
  8
_0-0_0
  6
CONTINUOUS
 62
    7
 10
-7.8620786914323872
 20
49.569796824178908
 40
0.0946959989315774
 50
316.28314531398541
 51
9.4243777894645646
  0
ARC
  8
_0-0_0
  6
CONTINUOUS
 62
    7
 10
-7.8696329188923215
 20
49.60495896754783
 40
0.1260838559749933
 50
267.98742195199634
 51
307.06712429451852
  0
LINE
  8
_0-0_0
  6
CONTINUOUS
 62
    7
 10
-7.8740608440216278
 20
49.47895288747003
 11
-7.9350358440216127
 21
49.47895288747003
  0
LINE
  8
_0-0_0
  6
CONTINUOUS
 62
    7
 10
-7.9350358440216127
 20
49.47895288747003
 11
-7.7197358440216277
 21
49.271927887470028
  0
LINE
  8
_0-0_0
  6
CONTINUOUS
 62
    7
 10
-7.7197358440216277
 20
49.271927887470028
 11
-7.8754358440216237
 21
49.271927887470028
  0
LINE
  8
_0-0_0
  6
CONTINUOUS
 62
    7
 10
-7.8754358440216237
 20
49.271927887470028
 11
-8.0633858440216244
 21
49.47895288747003
  0
LINE
  8
_0-0_0
  6
CONTINUOUS
 62
    7
 10
-8.0633858440216244
 20
49.47895288747003
 11
-8.1660358440216072
 21
49.47895288747003
  0
LINE
  8
_0-0_0
  6
CONTINUOUS
 62
    7
 10
-8.1660358440216072
 20
49.47895288747003
 11
-8.1660358440216072
 21
49.271927887470028
  0
LINE
  8
_0-0_0
  6
CONTINUOUS
 62
    7
 10
-8.1660358440216072
 20
49.271927887470028
 11
-8.2728358440216283
 21
49.271927887470028
  0
LINE
  8
_0-0_0
  6
CONTINUOUS
 62
    7
 10
-7.9221358440216108
 20
49.725352887470038
 11
-8.1660358440216072
 21
49.725352887470038
  0
LINE
  8
_0-0_0
  6
CONTINUOUS
 62
    7
 10
-8.1660358440216072
 20
49.725352887470038
 11
-8.1660358440216072
 21
49.572827887470027
  0
LINE
  8
_0-0_0
  6
CONTINUOUS
 62
    7
 10
-8.1660358440216072
 20
49.572827887470027
 11
-7.9221358440216108
 21
49.572827887470027
  0
LINE
  8
_0-0_0
  6
CONTINUOUS
 62
    7
 10
-7.9221358440216108
 20
49.572827887470027
 11
-7.8835358440216083
 21
49.582427887470033
  0
LINE
  8
_0-0_0
  6
CONTINUOUS
 62
    7
 10
-7.8835358440216083
 20
49.582427887470033
 11
-7.8732108440216138
 21
49.616402887470031
  0
LINE
  8
_0-0_0
  6
CONTINUOUS
 62
    7
 10
-7.8732108440216138
 20
49.616402887470031
 11
-7.8732108440216138
 21
49.682277887470036
  0
LINE
  8
_0-0_0
  6
CONTINUOUS
 62
    7
 10
-7.8732108440216138
 20
49.682277887470036
 11
-7.8835358440216083
 21
49.715752887470032
  0
LINE
  8
_0-0_0
  6
CONTINUOUS
 62
    7
 10
-7.8835358440216083
 20
49.715752887470032
 11
-7.9221358440216108
 21
49.725352887470038
  0
LINE
  8
_0-0_0
  6
CONTINUOUS
 62
    7
 10
-8.8641858440216339
 20
49.271927887470028
 11
-8.8641858440216339
 21
49.820302887470035
  0
LINE
  8
_0-0_0
  6
CONTINUOUS
 62
    7
 10
-8.8641858440216339
 20
49.820302887470035
 11
-8.3870358440216108
 21
49.820302887470035
  0
LINE
  8
_0-0_0
  6
CONTINUOUS
 62
    7
 10
-8.3870358440216108
 20
49.820302887470035
 11
-8.3870358440216108
 21
49.726902887470033
  0
LINE
  8
_0-0_0
  6
CONTINUOUS
 62
    7
 10
-8.3870358440216108
 20
49.726902887470033
 11
-8.7556608440216195
 21
49.726902887470033
  0
LINE
  8
_0-0_0
  6
CONTINUOUS
 62
    7
 10
-8.7556608440216195
 20
49.726902887470033
 11
-8.7556608440216195
 21
49.60447788747004
  0
LINE
  8
_0-0_0
  6
CONTINUOUS
 62
    7
 10
-8.7556608440216195
 20
49.60447788747004
 11
-8.5405108440216253
 21
49.60447788747004
  0
LINE
  8
_0-0_0
  6
CONTINUOUS
 62
    7
 10
-8.5405108440216253
 20
49.60447788747004
 11
-8.5405108440216253
 21
49.511102887470031
  0
LINE
  8
_0-0_0
  6
CONTINUOUS
 62
    7
 10
-8.5405108440216253
 20
49.511102887470031
 11
-8.7556608440216195
 21
49.511102887470031
  0
LINE
  8
_0-0_0
  6
CONTINUOUS
 62
    7
 10
-8.7556608440216195
 20
49.511102887470031
 11
-8.7556608440216195
 21
49.375152887470023
  0
LINE
  8
_0-0_0
  6
CONTINUOUS
 62
    7
 10
-8.7556608440216195
 20
49.375152887470023
 11
-8.3825608440216257
 21
49.375152887470023
  0
LINE
  8
_0-0_0
  6
CONTINUOUS
 62
    7
 10
-8.3825608440216257
 20
49.375152887470023
 11
-8.3825608440216257
 21
49.271927887470028
  0
LINE
  8
_0-0_0
  6
CONTINUOUS
 62
    7
 10
-8.3825608440216257
 20
49.271927887470028
 11
-8.8641858440216339
 21
49.271927887470028
  0
LINE
  8
_0-0_0
  6
CONTINUOUS
 62
    7
 10
-9.4538108440216178
 20
49.271927887470028
 11
-9.4538108440216178
 21
49.331577887470033
  0
LINE
  8
_0-0_0
  6
CONTINUOUS
 62
    7
 10
-9.4538108440216178
 20
49.331577887470033
 11
-9.1279108440216277
 21
49.722252887470034
  0
LINE
  8
_0-0_0
  6
CONTINUOUS
 62
    7
 10
-9.1279108440216277
 20
49.722252887470034
 11
-9.4212608440216314
 21
49.722252887470034
  0
LINE
  8
_0-0_0
  6
CONTINUOUS
 62
    7
 10
-9.4212608440216314
 20
49.722252887470034
 11
-9.4212608440216314
 21
49.820302887470035
  0
LINE
  8
_0-0_0
  6
CONTINUOUS
 62
    7
 10
-9.4212608440216314
 20
49.820302887470035
 11
-8.9534108440216329
 21
49.820302887470035
  0
LINE
  8
_0-0_0
  6
CONTINUOUS
 62
    7
 10
-8.9534108440216329
 20
49.820302887470035
 11
-8.9534108440216329
 21
49.765827887470039
  0
LINE
  8
_0-0_0
  6
CONTINUOUS
 62
    7
 10
-8.9534108440216329
 20
49.765827887470039
 11
-9.2841358440216339
 21
49.375152887470023
  0
LINE
  8
_0-0_0
  6
CONTINUOUS
 62
    7
 10
-9.2841358440216339
 20
49.375152887470023
 11
-8.9534108440216329
 21
49.375152887470023
  0
LINE
  8
_0-0_0
  6
CONTINUOUS
 62
    7
 10
-8.9534108440216329
 20
49.375152887470023
 11
-8.9534108440216329
 21
49.271927887470028
  0
LINE
  8
_0-0_0
  6
CONTINUOUS
 62
    7
 10
-8.9534108440216329
 20
49.271927887470028
 11
-9.4538108440216178
 21
49.271927887470028
  0
LINE
  8
_0-0_0
  6
CONTINUOUS
 62
    7
 10
-10.015710844021626
 20
49.271927887470028
 11
-10.015710844021626
 21
49.331577887470033
  0
LINE
  8
_0-0_0
  6
CONTINUOUS
 62
    7
 10
-10.015710844021626
 20
49.331577887470033
 11
-9.6898108440216077
 21
49.722252887470034
  0
LINE
  8
_0-0_0
  6
CONTINUOUS
 62
    7
 10
-9.6898108440216077
 20
49.722252887470034
 11
-9.9831608440216115
 21
49.722252887470034
  0
LINE
  8
_0-0_0
  6
CONTINUOUS
 62
    7
 10
-9.9831608440216115
 20
49.722252887470034
 11
-9.9831608440216115
 21
49.820302887470035
  0
LINE
  8
_0-0_0
  6
CONTINUOUS
 62
    7
 10
-9.9831608440216115
 20
49.820302887470035
 11
-9.515310844021613
 21
49.820302887470035
  0
LINE
  8
_0-0_0
  6
CONTINUOUS
 62
    7
 10
-9.515310844021613
 20
49.820302887470035
 11
-9.515310844021613
 21
49.765827887470039
  0
LINE
  8
_0-0_0
  6
CONTINUOUS
 62
    7
 10
-9.515310844021613
 20
49.765827887470039
 11
-9.846035844021614
 21
49.375152887470023
  0
LINE
  8
_0-0_0
  6
CONTINUOUS
 62
    7
 10
-9.846035844021614
 20
49.375152887470023
 11
-9.515310844021613
 21
49.375152887470023
  0
LINE
  8
_0-0_0
  6
CONTINUOUS
 62
    7
 10
-9.515310844021613
 20
49.375152887470023
 11
-9.515310844021613
 21
49.271927887470028
  0
LINE
  8
_0-0_0
  6
CONTINUOUS
 62
    7
 10
-9.515310844021613
 20
49.271927887470028
 11
-10.015710844021626
 21
49.271927887470028
  0
LINE
  8
_0-0_0
  6
CONTINUOUS
 62
    7
 10
-10.517310844021623
 20
49.820302887470035
 11
-10.517310844021623
 21
49.375152887470023
  0
LINE
  8
_0-0_0
  6
CONTINUOUS
 62
    7
 10
-10.517310844021623
 20
49.375152887470023
 11
-10.208110844021618
 21
49.375152887470023
  0
LINE
  8
_0-0_0
  6
CONTINUOUS
 62
    7
 10
-10.208110844021618
 20
49.375152887470023
 11
-10.208110844021618
 21
49.820302887470035
  0
LINE
  8
_0-0_0
  6
CONTINUOUS
 62
    7
 10
-10.208110844021618
 20
49.820302887470035
 11
-10.100110844021614
 21
49.820302887470035
  0
LINE
  8
_0-0_0
  6
CONTINUOUS
 62
    7
 10
-10.100110844021614
 20
49.820302887470035
 11
-10.100110844021614
 21
49.401652887470021
  0
LINE
  8
_0-0_0
  6
CONTINUOUS
 62
    7
 10
-10.100110844021614
 20
49.401652887470021
 11
-10.123885844021615
 21
49.299152887470029
  0
ARC
  8
_0-0_0
  6
CONTINUOUS
 62
    7
 10
-10.206408825337419
 20
49.409020918115488
 40
0.1374082479444337
 50
266.11832376067537
 51
306.91058049202968
  0
LINE
  8
_0-0_0
  6
CONTINUOUS
 62
    7
 10
-10.215710844021615
 20
49.271927887470028
 11
-10.51026084402163
 21
49.271927887470028
  0
ARC
  8
_0-0_0
  6
CONTINUOUS
 62
    7
 10
-10.532830809785949
 20
49.363319189337844
 40
0.0941369927908125
 50
222.9709020159188
 51
283.87217542317933
  0
ARC
  8
_0-0_0
  6
CONTINUOUS
 62
    7
 10
-10.439370812184265
 20
49.391451288256135
 40
0.1867438907290595
 50
176.86844001306937
 51
209.62038880308714
  0
LINE
  8
_0-0_0
  6
CONTINUOUS
 62
    7
 10
-10.625835844021609
 20
49.401652887470021
 11
-10.625835844021609
 21
49.820302887470035
  0
LINE
  8
_0-0_0
  6
CONTINUOUS
 62
    7
 10
-10.625835844021609
 20
49.820302887470035
 11
-10.517310844021623
 21
49.820302887470035
  0
LINE
  8
_0-0_0
  6
CONTINUOUS
 62
    7
 10
-11.252510844021614
 20
49.271927887470028
 11
-11.252510844021614
 21
49.820302887470035
  0
LINE
  8
_0-0_0
  6
CONTINUOUS
 62
    7
 10
-11.252510844021614
 20
49.820302887470035
 11
-10.853035844021619
 21
49.820302887470035
  0
ARC
  8
_0-0_0
  6
CONTINUOUS
 62
    7
 10
-10.837634480999597
 20
49.730317498770688
 40
0.0912938780111224
 50
45.027404069736292
 51
99.712297545516122
  0
ARC
  8
_0-0_0
  6
CONTINUOUS
 62
    7
 10
-10.880573820306424
 20
49.717990921850856
 40
0.1321504511055171
 50
358.23813379367954
 51
35.591550187608128
  0
LINE
  8
_0-0_0
  6
CONTINUOUS
 62
    7
 10
-10.74848584402163
 20
49.713927887470021
 11
-10.74848584402163
 21
49.647027887470031
  0
LINE
  8
_0-0_0
  6
CONTINUOUS
 62
    7
 10
-10.74848584402163
 20
49.647027887470031
 11
-10.769160844021613
 21
49.583977887470027
  0
ARC
  8
_0-0_0
  6
CONTINUOUS
 62
    7
 10
-10.844434710887143
 20
49.661919122403759
 40
0.1083558541837147
 50
278.31711489657818
 51
314.002621192444
  0
LINE
  8
_0-0_0
  6
CONTINUOUS
 62
    7
 10
-10.82876084402163
 20
49.554702887470029
 11
-10.766735844021625
 21
49.520977887470025
  0
ARC
  8
_0-0_0
  6
CONTINUOUS
 62
    7
 10
-10.872198629440888
 20
49.449615562080197
 40
0.1273380563438638
 50
359.88180943188405
 51
34.084594183298769
  0
LINE
  8
_0-0_0
  6
CONTINUOUS
 62
    7
 10
-10.74486084402163
 20
49.449352887470027
 11
-10.74486084402163
 21
49.379327887470026
  0
ARC
  8
_0-0_0
  6
CONTINUOUS
 62
    7
 10
-10.836671893803029
 20
49.370345806525577
 40
0.0922493720307002
 50
308.72611414011965
 51
5.5875933433477556
  0
ARC
  8
_0-0_0
  6
CONTINUOUS
 62
    7
 10
-10.876042719874121
 20
49.462609582667696
 40
0.1907798215916422
 50
268.16226474353374
 51
300.58850238344701
  0
LINE
  8
_0-0_0
  6
CONTINUOUS
 62
    7
 10
-10.882160844021612
 20
49.271927887470028
 11
-11.252510844021614
 21
49.271927887470028
  0
LINE
  8
_0-0_0
  6
CONTINUOUS
 62
    7
 10
-10.898335844021616
 20
49.731077887470036
 11
-11.145710844021622
 21
49.731077887470036
  0
LINE
  8
_0-0_0
  6
CONTINUOUS
 62
    7
 10
-11.145710844021622
 20
49.731077887470036
 11
-11.145710844021622
 21
49.60032788747003
  0
LINE
  8
_0-0_0
  6
CONTINUOUS
 62
    7
 10
-11.145710844021622
 20
49.60032788747003
 11
-10.898335844021616
 21
49.60032788747003
  0
LINE
  8
_0-0_0
  6
CONTINUOUS
 62
    7
 10
-10.898335844021616
 20
49.60032788747003
 11
-10.85941084402161
 21
49.60917788747004
  0
LINE
  8
_0-0_0
  6
CONTINUOUS
 62
    7
 10
-10.85941084402161
 20
49.60917788747004
 11
-10.848560844021634
 21
49.639752887470038
  0
LINE
  8
_0-0_0
  6
CONTINUOUS
 62
    7
 10
-10.848560844021634
 20
49.639752887470038
 11
-10.848560844021634
 21
49.691627887470034
  0
LINE
  8
_0-0_0
  6
CONTINUOUS
 62
    7
 10
-10.848560844021634
 20
49.691627887470034
 11
-10.85941084402161
 21
49.722002887470026
  0
LINE
  8
_0-0_0
  6
CONTINUOUS
 62
    7
 10
-10.85941084402161
 20
49.722002887470026
 11
-10.898335844021616
 21
49.731077887470036
  0
LINE
  8
_0-0_0
  6
CONTINUOUS
 62
    7
 10
-10.898335844021616
 20
49.510077887470032
 11
-11.145710844021622
 21
49.510077887470032
  0
LINE
  8
_0-0_0
  6
CONTINUOUS
 62
    7
 10
-11.145710844021622
 20
49.510077887470032
 11
-11.145710844021622
 21
49.370502887470039
  0
LINE
  8
_0-0_0
  6
CONTINUOUS
 62
    7
 10
-11.145710844021622
 20
49.370502887470039
 11
-10.898335844021616
 21
49.370502887470039
  0
LINE
  8
_0-0_0
  6
CONTINUOUS
 62
    7
 10
-10.898335844021616
 20
49.370502887470039
 11
-10.856660844021619
 21
49.381402887470031
  0
LINE
  8
_0-0_0
  6
CONTINUOUS
 62
    7
 10
-10.856660844021619
 20
49.381402887470031
 11
-10.845985844021627
 21
49.419777887470019
  0
LINE
  8
_0-0_0
  6
CONTINUOUS
 62
    7
 10
-10.845985844021627
 20
49.419777887470019
 11
-10.845985844021627
 21
49.461277887470033
  0
LINE
  8
_0-0_0
  6
CONTINUOUS
 62
    7
 10
-10.845985844021627
 20
49.461277887470033
 11
-10.856660844021619
 21
49.499427887470034
  0
LINE
  8
_0-0_0
  6
CONTINUOUS
 62
    7
 10
-10.856660844021619
 20
49.499427887470034
 11
-10.898335844021616
 21
49.510077887470032
  0
LINE
  8
_0-0_0
  6
CONTINUOUS
 62
    7
 10
-11.156735844021611
 20
53.772002887470038
 11
-11.336210844021608
 21
54.32037788747003
  0
LINE
  8
_0-0_0
  6
CONTINUOUS
 62
    7
 10
-11.336210844021608
 20
54.32037788747003
 11
-11.224260844021629
 21
54.32037788747003
  0
LINE
  8
_0-0_0
  6
CONTINUOUS
 62
    7
 10
-11.224260844021629
 20
54.32037788747003
 11
-11.106085844021621
 21
53.952527887470026
  0
LINE
  8
_0-0_0
  6
CONTINUOUS
 62
    7
 10
-11.106085844021621
 20
53.952527887470026
 11
-10.982235844021616
 21
54.32037788747003
  0
LINE
  8
_0-0_0
  6
CONTINUOUS
 62
    7
 10
-10.982235844021616
 20
54.32037788747003
 11
-10.906260844021617
 21
54.32037788747003
  0
LINE
  8
_0-0_0
  6
CONTINUOUS
 62
    7
 10
-10.906260844021617
 20
54.32037788747003
 11
-10.780185844021631
 21
53.952527887470026
  0
LINE
  8
_0-0_0
  6
CONTINUOUS
 62
    7
 10
-10.780185844021631
 20
53.952527887470026
 11
-10.667360844021616
 21
54.32037788747003
  0
LINE
  8
_0-0_0
  6
CONTINUOUS
 62
    7
 10
-10.667360844021616
 20
54.32037788747003
 11
-10.570360844021607
 21
54.32037788747003
  0
LINE
  8
_0-0_0
  6
CONTINUOUS
 62
    7
 10
-10.570360844021607
 20
54.32037788747003
 11
-10.750210844021623
 21
53.772002887470038
  0
LINE
  8
_0-0_0
  6
CONTINUOUS
 62
    7
 10
-10.750210844021623
 20
53.772002887470038
 11
-10.823410844021609
 21
53.772002887470038
  0
LINE
  8
_0-0_0
  6
CONTINUOUS
 62
    7
 10
-10.823410844021609
 20
53.772002887470038
 11
-10.951735844021627
 21
54.15127788747003
  0
LINE
  8
_0-0_0
  6
CONTINUOUS
 62
    7
 10
-10.951735844021627
 20
54.15127788747003
 11
-11.08178584402161
 21
53.772002887470038
  0
LINE
  8
_0-0_0
  6
CONTINUOUS
 62
    7
 10
-11.08178584402161
 20
53.772002887470038
 11
-11.156735844021611
 21
53.772002887470038
  0
LINE
  8
_0-0_0
  6
CONTINUOUS
 62
    7
 10
-10.506810844021615
 20
53.772002887470038
 11
-10.506810844021615
 21
54.32037788747003
  0
LINE
  8
_0-0_0
  6
CONTINUOUS
 62
    7
 10
-10.506810844021615
 20
54.32037788747003
 11
-10.398285844021629
 21
54.32037788747003
  0
LINE
  8
_0-0_0
  6
CONTINUOUS
 62
    7
 10
-10.398285844021629
 20
54.32037788747003
 11
-10.398285844021629
 21
53.772002887470038
  0
LINE
  8
_0-0_0
  6
CONTINUOUS
 62
    7
 10
-10.398285844021629
 20
53.772002887470038
 11
-10.506810844021615
 21
53.772002887470038
  0
LINE
  8
_0-0_0
  6
CONTINUOUS
 62
    7
 10
-10.250485844021611
 20
53.772002887470038
 11
-10.250485844021611
 21
54.32037788747003
  0
LINE
  8
_0-0_0
  6
CONTINUOUS
 62
    7
 10
-10.250485844021611
 20
54.32037788747003
 11
-9.8517358440216327
 21
54.32037788747003
  0
ARC
  8
_0-0_0
  6
CONTINUOUS
 62
    7
 10
-9.8357537838561342
 20
54.230254398019312
 40
0.0915296104979552
 50
45.2237746618177
 51
100.05601092619777
  0
ARC
  8
_0-0_0
  6
CONTINUOUS
 62
    7
 10
-9.8769387669034217
 20
54.218289661874778
 40
0.1306982428007771
 50
358.12041742262147
 51
36.062733418437013
  0
LINE
  8
_0-0_0
  6
CONTINUOUS
 62
    7
 10
-9.7463108440216075
 20
54.214002887470031
 11
-9.7463108440216075
 21
54.085377887470031
  0
ARC
  8
_0-0_0
  6
CONTINUOUS
 62
    7
 10
-9.8395902160639679
 20
54.069829101234802
 40
0.0945664105377908
 50
316.24387161852246
 51
9.4636514849127469
  0
ARC
  8
_0-0_0
  6
CONTINUOUS
 62
    7
 10
-9.8473144839268087
 20
54.105005567622271
 40
0.1260802277545408
 50
267.99034925896422
 51
307.08634922421174
  0
LINE
  8
_0-0_0
  6
CONTINUOUS
 62
    7
 10
-9.8517358440216327
 20
53.979002887470031
 11
-9.9127108440216176
 21
53.979002887470031
  0
LINE
  8
_0-0_0
  6
CONTINUOUS
 62
    7
 10
-9.9127108440216176
 20
53.979002887470031
 11
-9.6973858440216105
 21
53.772002887470038
  0
LINE
  8
_0-0_0
  6
CONTINUOUS
 62
    7
 10
-9.6973858440216105
 20
53.772002887470038
 11
-9.8531108440216286
 21
53.772002887470038
  0
LINE
  8
_0-0_0
  6
CONTINUOUS
 62
    7
 10
-9.8531108440216286
 20
53.772002887470038
 11
-10.041035844021607
 21
53.979002887470031
  0
LINE
  8
_0-0_0
  6
CONTINUOUS
 62
    7
 10
-10.041035844021607
 20
53.979002887470031
 11
-10.143685844021618
 21
53.979002887470031
  0
LINE
  8
_0-0_0
  6
CONTINUOUS
 62
    7
 10
-10.143685844021618
 20
53.979002887470031
 11
-10.143685844021618
 21
53.772002887470038
  0
LINE
  8
_0-0_0
  6
CONTINUOUS
 62
    7
 10
-10.143685844021618
 20
53.772002887470038
 11
-10.250485844021611
 21
53.772002887470038
  0
LINE
  8
_0-0_0
  6
CONTINUOUS
 62
    7
 10
-9.899785844021622
 20
54.225427887470033
 11
-10.143685844021618
 21
54.225427887470033
  0
LINE
  8
_0-0_0
  6
CONTINUOUS
 62
    7
 10
-10.143685844021618
 20
54.225427887470033
 11
-10.143685844021618
 21
54.072877887470028
  0
LINE
  8
_0-0_0
  6
CONTINUOUS
 62
    7
 10
-10.143685844021618
 20
54.072877887470028
 11
-9.899785844021622
 21
54.072877887470028
  0
LINE
  8
_0-0_0
  6
CONTINUOUS
 62
    7
 10
-9.899785844021622
 20
54.072877887470028
 11
-9.8612108440216133
 21
54.082502887470028
  0
LINE
  8
_0-0_0
  6
CONTINUOUS
 62
    7
 10
-9.8612108440216133
 20
54.082502887470028
 11
-9.850860844021625
 21
54.116477887470026
  0
LINE
  8
_0-0_0
  6
CONTINUOUS
 62
    7
 10
-9.850860844021625
 20
54.116477887470026
 11
-9.850860844021625
 21
54.182352887470032
  0
LINE
  8
_0-0_0
  6
CONTINUOUS
 62
    7
 10
-9.850860844021625
 20
54.182352887470032
 11
-9.8612108440216133
 21
54.215827887470027
  0
LINE
  8
_0-0_0
  6
CONTINUOUS
 62
    7
 10
-9.8612108440216133
 20
54.215827887470027
 11
-9.899785844021622
 21
54.225427887470033
  0
LINE
  8
_0-0_0
  6
CONTINUOUS
 62
    7
 10
-9.6167608440216128
 20
53.772002887470038
 11
-9.6167608440216128
 21
54.32037788747003
  0
LINE
  8
_0-0_0
  6
CONTINUOUS
 62
    7
 10
-9.6167608440216128
 20
54.32037788747003
 11
-9.1396358440216119
 21
54.32037788747003
  0
LINE
  8
_0-0_0
  6
CONTINUOUS
 62
    7
 10
-9.1396358440216119
 20
54.32037788747003
 11
-9.1396358440216119
 21
54.226977887470028
  0
LINE
  8
_0-0_0
  6
CONTINUOUS
 62
    7
 10
-9.1396358440216119
 20
54.226977887470028
 11
-9.5082608440216205
 21
54.226977887470028
  0
LINE
  8
_0-0_0
  6
CONTINUOUS
 62
    7
 10
-9.5082608440216205
 20
54.226977887470028
 11
-9.5082608440216205
 21
54.104552887470021
  0
LINE
  8
_0-0_0
  6
CONTINUOUS
 62
    7
 10
-9.5082608440216205
 20
54.104552887470021
 11
-9.2929358440216134
 21
54.104552887470021
  0
LINE
  8
_0-0_0
  6
CONTINUOUS
 62
    7
 10
-9.2929358440216134
 20
54.104552887470021
 11
-9.2929358440216134
 21
54.011177887470026
  0
LINE
  8
_0-0_0
  6
CONTINUOUS
 62
    7
 10
-9.2929358440216134
 20
54.011177887470026
 11
-9.5082608440216205
 21
54.011177887470026
  0
LINE
  8
_0-0_0
  6
CONTINUOUS
 62
    7
 10
-9.5082608440216205
 20
54.011177887470026
 11
-9.5082608440216205
 21
53.875227887470032
  0
LINE
  8
_0-0_0
  6
CONTINUOUS
 62
    7
 10
-9.5082608440216205
 20
53.875227887470032
 11
-9.135135844021633
 21
53.875227887470032
  0
LINE
  8
_0-0_0
  6
CONTINUOUS
 62
    7
 10
-9.135135844021633
 20
53.875227887470032
 11
-9.135135844021633
 21
53.772002887470038
  0
LINE
  8
_0-0_0
  6
CONTINUOUS
 62
    7
 10
-9.135135844021633
 20
53.772002887470038
 11
-9.6167608440216128
 21
53.772002887470038
  0
LINE
  8
_0-0_0
  6
CONTINUOUS
 62
    7
 10
-8.6640358440216261
 20
53.772002887470038
 11
-8.6640358440216261
 21
54.32037788747003
  0
LINE
  8
_0-0_0
  6
CONTINUOUS
 62
    7
 10
-8.6640358440216261
 20
54.32037788747003
 11
-8.2643858440216178
 21
54.32037788747003
  0
ARC
  8
_0-0_0
  6
CONTINUOUS
 62
    7
 10
-8.2488183355222446
 20
54.231358106085253
 40
0.0903707297672999
 50
44.747729788698528
 51
99.919405016397675
  0
ARC
  8
_0-0_0
  6
CONTINUOUS
 62
    7
 10
-8.2910783907128263
 20
54.218092793670195
 40
0.1313062580181001
 50
358.2150715787896
 51
35.841162492687985
  0
LINE
  8
_0-0_0
  6
CONTINUOUS
 62
    7
 10
-8.1598358440216288
 20
54.214002887470031
 11
-8.1598358440216288
 21
54.147077887470033
  0
LINE
  8
_0-0_0
  6
CONTINUOUS
 62
    7
 10
-8.1598358440216288
 20
54.147077887470033
 11
-8.1806858440216246
 21
54.084052887470037
  0
ARC
  8
_0-0_0
  6
CONTINUOUS
 62
    7
 10
-8.2559445890342857
 20
54.161777822960715
 40
0.1081898530265605
 50
278.41554818620762
 51
314.07643699616312
  0
LINE
  8
_0-0_0
  6
CONTINUOUS
 62
    7
 10
-8.2401108440216291
 20
54.05475288747003
 11
-8.178260844021608
 21
54.021052887470034
  0
ARC
  8
_0-0_0
  6
CONTINUOUS
 62
    7
 10
-8.2833127365550894
 20
53.949816052926664
 40
0.1269274860722469
 50
359.82477966141869
 51
34.141623953755811
  0
LINE
  8
_0-0_0
  6
CONTINUOUS
 62
    7
 10
-8.1563858440216137
 20
53.949427887470023
 11
-8.1563858440216137
 21
53.879402887470036
  0
ARC
  8
_0-0_0
  6
CONTINUOUS
 62
    7
 10
-8.2484437640975585
 20
53.870417265315353
 40
0.0924954163957067
 50
308.91927706489383
 51
5.574886843030983
  0
ARC
  8
_0-0_0
  6
CONTINUOUS
 62
    7
 10
-8.2876029259450235
 20
53.96341279729792
 40
0.191501062859498
 50
268.23211169549938
 51
300.52533313619807
  0
LINE
  8
_0-0_0
  6
CONTINUOUS
 62
    7
 10
-8.2935108440216112
 20
53.772002887470038
 11
-8.6640358440216261
 21
53.772002887470038
  0
LINE
  8
_0-0_0
  6
CONTINUOUS
 62
    7
 10
-8.3098608440216282
 20
54.231152887470031
 11
-8.5572358440216334
 21
54.231152887470031
  0
LINE
  8
_0-0_0
  6
CONTINUOUS
 62
    7
 10
-8.5572358440216334
 20
54.231152887470031
 11
-8.5572358440216334
 21
54.10040288747004
  0
LINE
  8
_0-0_0
  6
CONTINUOUS
 62
    7
 10
-8.5572358440216334
 20
54.10040288747004
 11
-8.3098608440216282
 21
54.10040288747004
  0
LINE
  8
_0-0_0
  6
CONTINUOUS
 62
    7
 10
-8.3098608440216282
 20
54.10040288747004
 11
-8.2707608440216092
 21
54.109227887470027
  0
LINE
  8
_0-0_0
  6
CONTINUOUS
 62
    7
 10
-8.2707608440216092
 20
54.109227887470027
 11
-8.2600858440216172
 21
54.139802887470026
  0
LINE
  8
_0-0_0
  6
CONTINUOUS
 62
    7
 10
-8.2600858440216172
 20
54.139802887470026
 11
-8.2600858440216172
 21
54.191702887470029
  0
LINE
  8
_0-0_0
  6
CONTINUOUS
 62
    7
 10
-8.2600858440216172
 20
54.191702887470029
 11
-8.2707608440216092
 21
54.222052887470028
  0
LINE
  8
_0-0_0
  6
CONTINUOUS
 62
    7
 10
-8.2707608440216092
 20
54.222052887470028
 11
-8.3098608440216282
 21
54.231152887470031
  0
LINE
  8
_0-0_0
  6
CONTINUOUS
 62
    7
 10
-8.3098608440216282
 20
54.010152887470028
 11
-8.5572358440216334
 21
54.010152887470028
  0
LINE
  8
_0-0_0
  6
CONTINUOUS
 62
    7
 10
-8.5572358440216334
 20
54.010152887470028
 11
-8.5572358440216334
 21
53.870577887470034
  0
LINE
  8
_0-0_0
  6
CONTINUOUS
 62
    7
 10
-8.5572358440216334
 20
53.870577887470034
 11
-8.3098608440216282
 21
53.870577887470034
  0
LINE
  8
_0-0_0
  6
CONTINUOUS
 62
    7
 10
-8.3098608440216282
 20
53.870577887470034
 11
-8.2681858440216303
 21
53.881477887470027
  0
LINE
  8
_0-0_0
  6
CONTINUOUS
 62
    7
 10
-8.2681858440216303
 20
53.881477887470027
 11
-8.2573358440216253
 21
53.919852887470029
  0
LINE
  8
_0-0_0
  6
CONTINUOUS
 62
    7
 10
-8.2573358440216253
 20
53.919852887470029
 11
-8.2573358440216253
 21
53.961352887470028
  0
LINE
  8
_0-0_0
  6
CONTINUOUS
 62
    7
 10
-8.2573358440216253
 20
53.961352887470028
 11
-8.2681858440216303
 21
53.99950288747003
  0
LINE
  8
_0-0_0
  6
CONTINUOUS
 62
    7
 10
-8.2681858440216303
 20
53.99950288747003
 11
-8.3098608440216282
 21
54.010152887470028
  0
LINE
  8
_0-0_0
  6
CONTINUOUS
 62
    7
 10
-8.0373608440216202
 20
53.772002887470038
 11
-8.0373608440216202
 21
54.32037788747003
  0
LINE
  8
_0-0_0
  6
CONTINUOUS
 62
    7
 10
-8.0373608440216202
 20
54.32037788747003
 11
-7.6385858440216197
 21
54.32037788747003
  0
ARC
  8
_0-0_0
  6
CONTINUOUS
 62
    7
 10
-7.6226212193677867
 20
54.23026271352515
 40
0.0915183796592558
 50
45.223469652703756
 51
100.04617200369857
  0
ARC
  8
_0-0_0
  6
CONTINUOUS
 62
    7
 10
-7.6638137669034307
 20
54.218289661874792
 40
0.1306982428007746
 50
358.12041742261783
 51
36.062733418433297
  0
LINE
  8
_0-0_0
  6
CONTINUOUS
 62
    7
 10
-7.5331858440216166
 20
54.214002887470031
 11
-7.5331858440216166
 21
54.085377887470031
  0
ARC
  8
_0-0_0
  6
CONTINUOUS
 62
    7
 10
-7.6264652160639486
 20
54.069829101234788
 40
0.0945664105377889
 50
316.2438716185261
 51
9.4636514849164115
  0
ARC
  8
_0-0_0
  6
CONTINUOUS
 62
    7
 10
-7.6341721916390242
 20
54.104955203384662
 40
0.1260296243413193
 50
267.99304825915794
 51
307.09388503216002
  0
LINE
  8
_0-0_0
  6
CONTINUOUS
 62
    7
 10
-7.6385858440216197
 20
53.979002887470031
 11
-7.6995858440216267
 21
53.979002887470031
  0
LINE
  8
_0-0_0
  6
CONTINUOUS
 62
    7
 10
-7.6995858440216267
 20
53.979002887470031
 11
-7.4842608440216196
 21
53.772002887470038
  0
LINE
  8
_0-0_0
  6
CONTINUOUS
 62
    7
 10
-7.4842608440216196
 20
53.772002887470038
 11
-7.6399858440216093
 21
53.772002887470038
  0
LINE
  8
_0-0_0
  6
CONTINUOUS
 62
    7
 10
-7.6399858440216093
 20
53.772002887470038
 11
-7.8279108440216163
 21
53.979002887470031
  0
LINE
  8
_0-0_0
  6
CONTINUOUS
 62
    7
 10
-7.8279108440216163
 20
53.979002887470031
 11
-7.9305608440216275
 21
53.979002887470031
  0
LINE
  8
_0-0_0
  6
CONTINUOUS
 62
    7
 10
-7.9305608440216275
 20
53.979002887470031
 11
-7.9305608440216275
 21
53.772002887470038
  0
LINE
  8
_0-0_0
  6
CONTINUOUS
 62
    7
 10
-7.9305608440216275
 20
53.772002887470038
 11
-8.0373608440216202
 21
53.772002887470038
  0
LINE
  8
_0-0_0
  6
CONTINUOUS
 62
    7
 10
-7.6866608440216311
 20
54.225427887470033
 11
-7.9305608440216275
 21
54.225427887470033
  0
LINE
  8
_0-0_0
  6
CONTINUOUS
 62
    7
 10
-7.9305608440216275
 20
54.225427887470033
 11
-7.9305608440216275
 21
54.072877887470028
  0
LINE
  8
_0-0_0
  6
CONTINUOUS
 62
    7
 10
-7.9305608440216275
 20
54.072877887470028
 11
-7.6866608440216311
 21
54.072877887470028
  0
LINE
  8
_0-0_0
  6
CONTINUOUS
 62
    7
 10
-7.6866608440216311
 20
54.072877887470028
 11
-7.6480608440216287
 21
54.082502887470028
  0
LINE
  8
_0-0_0
  6
CONTINUOUS
 62
    7
 10
-7.6480608440216287
 20
54.082502887470028
 11
-7.6377358440216341
 21
54.116477887470026
  0
LINE
  8
_0-0_0
  6
CONTINUOUS
 62
    7
 10
-7.6377358440216341
 20
54.116477887470026
 11
-7.6377358440216341
 21
54.182352887470032
  0
LINE
  8
_0-0_0
  6
CONTINUOUS
 62
    7
 10
-7.6377358440216341
 20
54.182352887470032
 11
-7.6480608440216287
 21
54.215827887470027
  0
LINE
  8
_0-0_0
  6
CONTINUOUS
 62
    7
 10
-7.6480608440216287
 20
54.215827887470027
 11
-7.6866608440216311
 21
54.225427887470033
  0
LINE
  8
_0-0_0
  6
CONTINUOUS
 62
    7
 10
-7.403460844021609
 20
53.772002887470038
 11
-7.403460844021609
 21
54.32037788747003
  0
LINE
  8
_0-0_0
  6
CONTINUOUS
 62
    7
 10
-7.403460844021609
 20
54.32037788747003
 11
-6.9263108440216072
 21
54.32037788747003
  0
LINE
  8
_0-0_0
  6
CONTINUOUS
 62
    7
 10
-6.9263108440216072
 20
54.32037788747003
 11
-6.9263108440216072
 21
54.226977887470028
  0
LINE
  8
_0-0_0
  6
CONTINUOUS
 62
    7
 10
-6.9263108440216072
 20
54.226977887470028
 11
-7.294935844021623
 21
54.226977887470028
  0
LINE
  8
_0-0_0
  6
CONTINUOUS
 62
    7
 10
-7.294935844021623
 20
54.226977887470028
 11
-7.294935844021623
 21
54.104552887470021
  0
LINE
  8
_0-0_0
  6
CONTINUOUS
 62
    7
 10
-7.294935844021623
 20
54.104552887470021
 11
-7.0798108440216154
 21
54.104552887470021
  0
LINE
  8
_0-0_0
  6
CONTINUOUS
 62
    7
 10
-7.0798108440216154
 20
54.104552887470021
 11
-7.0798108440216154
 21
54.011177887470026
  0
LINE
  8
_0-0_0
  6
CONTINUOUS
 62
    7
 10
-7.0798108440216154
 20
54.011177887470026
 11
-7.294935844021623
 21
54.011177887470026
  0
LINE
  8
_0-0_0
  6
CONTINUOUS
 62
    7
 10
-7.294935844021623
 20
54.011177887470026
 11
-7.294935844021623
 21
53.875227887470032
  0
LINE
  8
_0-0_0
  6
CONTINUOUS
 62
    7
 10
-7.294935844021623
 20
53.875227887470032
 11
-6.9218358440216221
 21
53.875227887470032
  0
LINE
  8
_0-0_0
  6
CONTINUOUS
 62
    7
 10
-6.9218358440216221
 20
53.875227887470032
 11
-6.9218358440216221
 21
53.772002887470038
  0
LINE
  8
_0-0_0
  6
CONTINUOUS
 62
    7
 10
-6.9218358440216221
 20
53.772002887470038
 11
-7.403460844021609
 21
53.772002887470038
  0
LINE
  8
_0-0_0
  6
CONTINUOUS
 62
    7
 10
-6.9011858440216187
 20
53.772002887470038
 11
-6.6374608440216107
 21
54.32037788747003
  0
LINE
  8
_0-0_0
  6
CONTINUOUS
 62
    7
 10
-6.6374608440216107
 20
54.32037788747003
 11
-6.532885844021628
 21
54.32037788747003
  0
LINE
  8
_0-0_0
  6
CONTINUOUS
 62
    7
 10
-6.532885844021628
 20
54.32037788747003
 11
-6.2657358440216129
 21
53.772002887470038
  0
LINE
  8
_0-0_0
  6
CONTINUOUS
 62
    7
 10
-6.2657358440216129
 20
53.772002887470038
 11
-6.3873358440216137
 21
53.772002887470038
  0
LINE
  8
_0-0_0
  6
CONTINUOUS
 62
    7
 10
-6.3873358440216137
 20
53.772002887470038
 11
-6.4433108440216174
 21
53.891852887470037
  0
LINE
  8
_0-0_0
  6
CONTINUOUS
 62
    7
 10
-6.4433108440216174
 20
53.891852887470037
 11
-6.7389108440216106
 21
53.891852887470037
  0
LINE
  8
_0-0_0
  6
CONTINUOUS
 62
    7
 10
-6.7389108440216106
 20
53.891852887470037
 11
-6.7929858440216222
 21
53.772002887470038
  0
LINE
  8
_0-0_0
  6
CONTINUOUS
 62
    7
 10
-6.7929858440216222
 20
53.772002887470038
 11
-6.9011858440216187
 21
53.772002887470038
  0
LINE
  8
_0-0_0
  6
CONTINUOUS
 62
    7
 10
-6.6925608440216209
 20
53.990927887470036
 11
-6.4882858440216253
 21
53.990927887470036
  0
LINE
  8
_0-0_0
  6
CONTINUOUS
 62
    7
 10
-6.4882858440216253
 20
53.990927887470036
 11
-6.5888858440216111
 21
54.214002887470031
  0
LINE
  8
_0-0_0
  6
CONTINUOUS
 62
    7
 10
-6.5888858440216111
 20
54.214002887470031
 11
-6.6925608440216209
 21
53.990927887470036
  0
LINE
  8
_0-0_0
  6
CONTINUOUS
 62
    7
 10
-6.205960844021611
 20
53.772002887470038
 11
-6.205960844021611
 21
54.32037788747003
  0
LINE
  8
_0-0_0
  6
CONTINUOUS
 62
    7
 10
-6.205960844021611
 20
54.32037788747003
 11
-6.0965608440216172
 21
54.32037788747003
  0
LINE
  8
_0-0_0
  6
CONTINUOUS
 62
    7
 10
-6.0965608440216172
 20
54.32037788747003
 11
-6.0965608440216172
 21
54.091577887470038
  0
LINE
  8
_0-0_0
  6
CONTINUOUS
 62
    7
 10
-6.0965608440216172
 20
54.091577887470038
 11
-5.8381858440216163
 21
54.32037788747003
  0
LINE
  8
_0-0_0
  6
CONTINUOUS
 62
    7
 10
-5.8381858440216163
 20
54.32037788747003
 11
-5.6812608440216152
 21
54.32037788747003
  0
LINE
  8
_0-0_0
  6
CONTINUOUS
 62
    7
 10
-5.6812608440216152
 20
54.32037788747003
 11
-5.9899358440216091
 21
54.06200288747003
  0
LINE
  8
_0-0_0
  6
CONTINUOUS
 62
    7
 10
-5.9899358440216091
 20
54.06200288747003
 11
-5.6431858440216232
 21
53.772002887470038
  0
LINE
  8
_0-0_0
  6
CONTINUOUS
 62
    7
 10
-5.6431858440216232
 20
53.772002887470038
 11
-5.8175108440216192
 21
53.772002887470038
  0
LINE
  8
_0-0_0
  6
CONTINUOUS
 62
    7
 10
-5.8175108440216192
 20
53.772002887470038
 11
-6.0965608440216172
 21
54.013252887470031
  0
LINE
  8
_0-0_0
  6
CONTINUOUS
 62
    7
 10
-6.0965608440216172
 20
54.013252887470031
 11
-6.0965608440216172
 21
53.772002887470038
  0
LINE
  8
_0-0_0
  6
CONTINUOUS
 62
    7
 10
-6.0965608440216172
 20
53.772002887470038
 11
-6.205960844021611
 21
53.772002887470038
  0
LINE
  8
_0-0_0
  6
CONTINUOUS
 62
    7
 10
-4.1623108440216257
 20
56.272027887470031
 11
-4.1623108440216257
 21
56.820402887470038
  0
LINE
  8
_0-0_0
  6
CONTINUOUS
 62
    7
 10
-4.1623108440216257
 20
56.820402887470038
 11
-3.6851858440216247
 21
56.820402887470038
  0
LINE
  8
_0-0_0
  6
CONTINUOUS
 62
    7
 10
-3.6851858440216247
 20
56.820402887470038
 11
-3.6851858440216247
 21
56.727002887470036
  0
LINE
  8
_0-0_0
  6
CONTINUOUS
 62
    7
 10
-3.6851858440216247
 20
56.727002887470036
 11
-4.0538108440216192
 21
56.727002887470036
  0
LINE
  8
_0-0_0
  6
CONTINUOUS
 62
    7
 10
-4.0538108440216192
 20
56.727002887470036
 11
-4.0538108440216192
 21
56.604552887470021
  0
LINE
  8
_0-0_0
  6
CONTINUOUS
 62
    7
 10
-4.0538108440216192
 20
56.604552887470021
 11
-3.8384858440216263
 21
56.604552887470021
  0
LINE
  8
_0-0_0
  6
CONTINUOUS
 62
    7
 10
-3.8384858440216263
 20
56.604552887470021
 11
-3.8384858440216263
 21
56.511202887470034
  0
LINE
  8
_0-0_0
  6
CONTINUOUS
 62
    7
 10
-3.8384858440216263
 20
56.511202887470034
 11
-4.0538108440216192
 21
56.511202887470034
  0
LINE
  8
_0-0_0
  6
CONTINUOUS
 62
    7
 10
-4.0538108440216192
 20
56.511202887470034
 11
-4.0538108440216192
 21
56.375252887470026
  0
LINE
  8
_0-0_0
  6
CONTINUOUS
 62
    7
 10
-4.0538108440216192
 20
56.375252887470026
 11
-3.6807108440216112
 21
56.375252887470026
  0
LINE
  8
_0-0_0
  6
CONTINUOUS
 62
    7
 10
-3.6807108440216112
 20
56.375252887470026
 11
-3.6807108440216112
 21
56.272027887470031
  0
LINE
  8
_0-0_0
  6
CONTINUOUS
 62
    7
 10
-3.6807108440216112
 20
56.272027887470031
 11
-4.1623108440216257
 21
56.272027887470031
  0
LINE
  8
_0-0_0
  6
CONTINUOUS
 62
    7
 10
-4.4065858440216132
 20
56.722352887470038
 11
-4.7452358440216145
 21
56.722352887470038
  0
LINE
  8
_0-0_0
  6
CONTINUOUS
 62
    7
 10
-4.7452358440216145
 20
56.722352887470038
 11
-4.7452358440216145
 21
56.375252887470026
  0
LINE
  8
_0-0_0
  6
CONTINUOUS
 62
    7
 10
-4.7452358440216145
 20
56.375252887470026
 11
-4.4065858440216132
 21
56.375252887470026
  0
LINE
  8
_0-0_0
  6
CONTINUOUS
 62
    7
 10
-4.4065858440216132
 20
56.375252887470026
 11
-4.4065858440216132
 21
56.497202887470024
  0
LINE
  8
_0-0_0
  6
CONTINUOUS
 62
    7
 10
-4.4065858440216132
 20
56.497202887470024
 11
-4.583835844021614
 21
56.497202887470024
  0
LINE
  8
_0-0_0
  6
CONTINUOUS
 62
    7
 10
-4.583835844021614
 20
56.497202887470024
 11
-4.583835844021614
 21
56.590577887470033
  0
LINE
  8
_0-0_0
  6
CONTINUOUS
 62
    7
 10
-4.583835844021614
 20
56.590577887470033
 11
-4.3011608440216165
 21
56.590577887470033
  0
LINE
  8
_0-0_0
  6
CONTINUOUS
 62
    7
 10
-4.3011608440216165
 20
56.590577887470033
 11
-4.3011608440216165
 21
56.401727887470031
  0
LINE
  8
_0-0_0
  6
CONTINUOUS
 62
    7
 10
-4.3011608440216165
 20
56.401727887470031
 11
-4.324935844021617
 21
56.299227887470039
  0
ARC
  8
_0-0_0
  6
CONTINUOUS
 62
    7
 10
-4.4076754658348776
 20
56.409961611089784
 40
0.1382309754161465
 50
266.24184191843239
 51
306.76688084508294
  0
LINE
  8
_0-0_0
  6
CONTINUOUS
 62
    7
 10
-4.4167358440216233
 20
56.272027887470031
 11
-4.7381608440216141
 21
56.272027887470031
  0
ARC
  8
_0-0_0
  6
CONTINUOUS
 62
    7
 10
-4.7609696013193528
 20
56.363624254147751
 40
0.094393505062728
 50
223.01672666309085
 51
283.98304867277272
  0
ARC
  8
_0-0_0
  6
CONTINUOUS
 62
    7
 10
-4.6653022149940071
 20
56.39143377617863
 40
0.1887395654923517
 50
176.87345923046402
 51
209.24433854743981
  0
LINE
  8
_0-0_0
  6
CONTINUOUS
 62
    7
 10
-4.8537608440216147
 20
56.401727887470031
 11
-4.8537608440216147
 21
56.690677887470031
  0
LINE
  8
_0-0_0
  6
CONTINUOUS
 62
    7
 10
-4.8537608440216147
 20
56.690677887470031
 11
-4.8299858440216141
 21
56.792877887470027
  0
ARC
  8
_0-0_0
  6
CONTINUOUS
 62
    7
 10
-4.7472024004757785
 20
56.683636776531074
 40
0.1370646520605595
 50
86.217701190508834
 51
127.15502543067176
  0
LINE
  8
_0-0_0
  6
CONTINUOUS
 62
    7
 10
-4.7381608440216141
 20
56.820402887470038
 11
-4.4167358440216233
 21
56.820402887470038
  0
ARC
  8
_0-0_0
  6
CONTINUOUS
 62
    7
 10
-4.3944105046705104
 20
56.728030979423977
 40
0.095031521997763
 50
43.463875485409552
 51
103.58723844796862
  0
ARC
  8
_0-0_0
  6
CONTINUOUS
 62
    7
 10
-4.4739092431230816
 20
56.704664891821949
 40
0.1729704660119175
 50
357.09637817254037
 51
30.865465810282267
  0
LINE
  8
_0-0_0
  6
CONTINUOUS
 62
    7
 10
-4.3011608440216165
 20
56.695902887470027
 11
-4.3011608440216165
 21
56.683402887470038
  0
LINE
  8
_0-0_0
  6
CONTINUOUS
 62
    7
 10
-4.3011608440216165
 20
56.683402887470038
 11
-4.4065858440216132
 21
56.661102887470037
  0
LINE
  8
_0-0_0
  6
CONTINUOUS
 62
    7
 10
-4.4065858440216132
 20
56.661102887470037
 11
-4.4065858440216132
 21
56.722352887470038
  0
LINE
  8
_0-0_0
  6
CONTINUOUS
 62
    7
 10
-5.539160844021616
 20
56.272027887470031
 11
-5.2754358440216222
 21
56.820402887470038
  0
LINE
  8
_0-0_0
  6
CONTINUOUS
 62
    7
 10
-5.2754358440216222
 20
56.820402887470038
 11
-5.171035844021624
 21
56.820402887470038
  0
LINE
  8
_0-0_0
  6
CONTINUOUS
 62
    7
 10
-5.171035844021624
 20
56.820402887470038
 11
-4.9037108440216244
 21
56.272027887470031
  0
LINE
  8
_0-0_0
  6
CONTINUOUS
 62
    7
 10
-4.9037108440216244
 20
56.272027887470031
 11
-5.0254858440216097
 21
56.272027887470031
  0
LINE
  8
_0-0_0
  6
CONTINUOUS
 62
    7
 10
-5.0254858440216097
 20
56.272027887470031
 11
-5.0814858440216213
 21
56.391877887470031
  0
LINE
  8
_0-0_0
  6
CONTINUOUS
 62
    7
 10
-5.0814858440216213
 20
56.391877887470031
 11
-5.3768858440216221
 21
56.391877887470031
  0
LINE
  8
_0-0_0
  6
CONTINUOUS
 62
    7
 10
-5.3768858440216221
 20
56.391877887470031
 11
-5.4311608440216119
 21
56.272027887470031
  0
LINE
  8
_0-0_0
  6
CONTINUOUS
 62
    7
 10
-5.4311608440216119
 20
56.272027887470031
 11
-5.539160844021616
 21
56.272027887470031
  0
LINE
  8
_0-0_0
  6
CONTINUOUS
 62
    7
 10
-5.3305608440216261
 20
56.49095288747003
 11
-5.1264358440216213
 21
56.49095288747003
  0
LINE
  8
_0-0_0
  6
CONTINUOUS
 62
    7
 10
-5.1264358440216213
 20
56.49095288747003
 11
-5.2270358440216071
 21
56.714027887470039
  0
LINE
  8
_0-0_0
  6
CONTINUOUS
 62
    7
 10
-5.2270358440216071
 20
56.714027887470039
 11
-5.3305608440216261
 21
56.49095288747003
  0
LINE
  8
_0-0_0
  6
CONTINUOUS
 62
    7
 10
-6.0767608440216137
 20
56.272027887470031
 11
-6.0767608440216137
 21
56.820402887470038
  0
LINE
  8
_0-0_0
  6
CONTINUOUS
 62
    7
 10
-6.0767608440216137
 20
56.820402887470038
 11
-5.9673858440216137
 21
56.820402887470038
  0
LINE
  8
_0-0_0
  6
CONTINUOUS
 62
    7
 10
-5.9673858440216137
 20
56.820402887470038
 11
-5.9673858440216137
 21
56.591602887470032
  0
LINE
  8
_0-0_0
  6
CONTINUOUS
 62
    7
 10
-5.9673858440216137
 20
56.591602887470032
 11
-5.7090108440216127
 21
56.820402887470038
  0
LINE
  8
_0-0_0
  6
CONTINUOUS
 62
    7
 10
-5.7090108440216127
 20
56.820402887470038
 11
-5.5520858440216116
 21
56.820402887470038
  0
LINE
  8
_0-0_0
  6
CONTINUOUS
 62
    7
 10
-5.5520858440216116
 20
56.820402887470038
 11
-5.8607608440216197
 21
56.56200288747003
  0
LINE
  8
_0-0_0
  6
CONTINUOUS
 62
    7
 10
-5.8607608440216197
 20
56.56200288747003
 11
-5.5140108440216196
 21
56.272027887470031
  0
LINE
  8
_0-0_0
  6
CONTINUOUS
 62
    7
 10
-5.5140108440216196
 20
56.272027887470031
 11
-5.6883358440216156
 21
56.272027887470031
  0
LINE
  8
_0-0_0
  6
CONTINUOUS
 62
    7
 10
-5.6883358440216156
 20
56.272027887470031
 11
-5.9673858440216137
 21
56.513277887470025
  0
LINE
  8
_0-0_0
  6
CONTINUOUS
 62
    7
 10
-5.9673858440216137
 20
56.513277887470025
 11
-5.9673858440216137
 21
56.272027887470031
  0
LINE
  8
_0-0_0
  6
CONTINUOUS
 62
    7
 10
-5.9673858440216137
 20
56.272027887470031
 11
-6.0767608440216137
 21
56.272027887470031
  0
LINE
  8
_0-0_0
  6
CONTINUOUS
 62
    7
 10
-6.7718108440216227
 20
56.272027887470031
 11
-6.5080858440216147
 21
56.820402887470038
  0
LINE
  8
_0-0_0
  6
CONTINUOUS
 62
    7
 10
-6.5080858440216147
 20
56.820402887470038
 11
-6.4037108440216244
 21
56.820402887470038
  0
LINE
  8
_0-0_0
  6
CONTINUOUS
 62
    7
 10
-6.4037108440216244
 20
56.820402887470038
 11
-6.1363608440216169
 21
56.272027887470031
  0
LINE
  8
_0-0_0
  6
CONTINUOUS
 62
    7
 10
-6.1363608440216169
 20
56.272027887470031
 11
-6.2581358440216164
 21
56.272027887470031
  0
LINE
  8
_0-0_0
  6
CONTINUOUS
 62
    7
 10
-6.2581358440216164
 20
56.272027887470031
 11
-6.314135844021628
 21
56.391877887470031
  0
LINE
  8
_0-0_0
  6
CONTINUOUS
 62
    7
 10
-6.314135844021628
 20
56.391877887470031
 11
-6.6095358440216145
 21
56.391877887470031
  0
LINE
  8
_0-0_0
  6
CONTINUOUS
 62
    7
 10
-6.6095358440216145
 20
56.391877887470031
 11
-6.6638108440216186
 21
56.272027887470031
  0
LINE
  8
_0-0_0
  6
CONTINUOUS
 62
    7
 10
-6.6638108440216186
 20
56.272027887470031
 11
-6.7718108440216227
 21
56.272027887470031
  0
LINE
  8
_0-0_0
  6
CONTINUOUS
 62
    7
 10
-6.5632108440216186
 20
56.49095288747003
 11
-6.359085844021628
 21
56.49095288747003
  0
LINE
  8
_0-0_0
  6
CONTINUOUS
 62
    7
 10
-6.359085844021628
 20
56.49095288747003
 11
-6.4596858440216138
 21
56.714027887470039
  0
LINE
  8
_0-0_0
  6
CONTINUOUS
 62
    7
 10
-6.4596858440216138
 20
56.714027887470039
 11
-6.5632108440216186
 21
56.49095288747003
  0
LINE
  8
_0-0_0
  6
CONTINUOUS
 62
    7
 10
-7.2742858440216338
 20
56.272027887470031
 11
-7.2742858440216338
 21
56.820402887470038
  0
LINE
  8
_0-0_0
  6
CONTINUOUS
 62
    7
 10
-7.2742858440216338
 20
56.820402887470038
 11
-6.7971358440216179
 21
56.820402887470038
  0
LINE
  8
_0-0_0
  6
CONTINUOUS
 62
    7
 10
-6.7971358440216179
 20
56.820402887470038
 11
-6.7971358440216179
 21
56.727002887470036
  0
LINE
  8
_0-0_0
  6
CONTINUOUS
 62
    7
 10
-6.7971358440216179
 20
56.727002887470036
 11
-7.1657608440216123
 21
56.727002887470036
  0
LINE
  8
_0-0_0
  6
CONTINUOUS
 62
    7
 10
-7.1657608440216123
 20
56.727002887470036
 11
-7.1657608440216123
 21
56.604552887470021
  0
LINE
  8
_0-0_0
  6
CONTINUOUS
 62
    7
 10
-7.1657608440216123
 20
56.604552887470021
 11
-6.9506108440216181
 21
56.604552887470021
  0
LINE
  8
_0-0_0
  6
CONTINUOUS
 62
    7
 10
-6.9506108440216181
 20
56.604552887470021
 11
-6.9506108440216181
 21
56.511202887470034
  0
LINE
  8
_0-0_0
  6
CONTINUOUS
 62
    7
 10
-6.9506108440216181
 20
56.511202887470034
 11
-7.1657608440216123
 21
56.511202887470034
  0
LINE
  8
_0-0_0
  6
CONTINUOUS
 62
    7
 10
-7.1657608440216123
 20
56.511202887470034
 11
-7.1657608440216123
 21
56.375252887470026
  0
LINE
  8
_0-0_0
  6
CONTINUOUS
 62
    7
 10
-7.1657608440216123
 20
56.375252887470026
 11
-6.7926608440216185
 21
56.375252887470026
  0
LINE
  8
_0-0_0
  6
CONTINUOUS
 62
    7
 10
-6.7926608440216185
 20
56.375252887470026
 11
-6.7926608440216185
 21
56.272027887470031
  0
LINE
  8
_0-0_0
  6
CONTINUOUS
 62
    7
 10
-6.7926608440216185
 20
56.272027887470031
 11
-7.2742858440216338
 21
56.272027887470031
  0
LINE
  8
_0-0_0
  6
CONTINUOUS
 62
    7
 10
-7.8008608440216136
 20
56.272027887470031
 11
-7.8008608440216136
 21
56.820402887470038
  0
LINE
  8
_0-0_0
  6
CONTINUOUS
 62
    7
 10
-7.8008608440216136
 20
56.820402887470038
 11
-7.6923358440216276
 21
56.820402887470038
  0
LINE
  8
_0-0_0
  6
CONTINUOUS
 62
    7
 10
-7.6923358440216276
 20
56.820402887470038
 11
-7.6923358440216276
 21
56.375252887470026
  0
LINE
  8
_0-0_0
  6
CONTINUOUS
 62
    7
 10
-7.6923358440216276
 20
56.375252887470026
 11
-7.3426608440216086
 21
56.375252887470026
  0
LINE
  8
_0-0_0
  6
CONTINUOUS
 62
    7
 10
-7.3426608440216086
 20
56.375252887470026
 11
-7.3426608440216086
 21
56.272027887470031
  0
LINE
  8
_0-0_0
  6
CONTINUOUS
 62
    7
 10
-7.3426608440216086
 20
56.272027887470031
 11
-7.8008608440216136
 21
56.272027887470031
  0
LINE
  8
_0-0_0
  6
CONTINUOUS
 62
    7
 10
-9.0931108440216093
 20
56.272027887470031
 11
-9.0931108440216093
 21
56.820402887470038
  0
LINE
  8
_0-0_0
  6
CONTINUOUS
 62
    7
 10
-9.0931108440216093
 20
56.820402887470038
 11
-8.9845858440216233
 21
56.820402887470038
  0
LINE
  8
_0-0_0
  6
CONTINUOUS
 62
    7
 10
-8.9845858440216233
 20
56.820402887470038
 11
-8.9845858440216233
 21
56.272027887470031
  0
LINE
  8
_0-0_0
  6
CONTINUOUS
 62
    7
 10
-8.9845858440216233
 20
56.272027887470031
 11
-9.0931108440216093
 21
56.272027887470031
  0
LINE
  8
_0-0_0
  6
CONTINUOUS
 62
    7
 10
-8.8369608440216183
 20
56.272027887470031
 11
-8.8369608440216183
 21
56.820402887470038
  0
LINE
  8
_0-0_0
  6
CONTINUOUS
 62
    7
 10
-8.8369608440216183
 20
56.820402887470038
 11
-8.5370858440216324
 21
56.820402887470038
  0
ARC
  8
_0-0_0
  6
CONTINUOUS
 62
    7
 10
-8.5187613905356017
 20
56.560235855126194
 40
0.2608115609288884
 50
46.637727968406274
 51
94.028884159044594
  0
ARC
  8
_0-0_0
  6
CONTINUOUS
 62
    7
 10
-8.5499517260337115
 20
56.565282514607787
 40
0.2797819931247014
 50
356.78220163830906
 51
41.276504431807936
  0
ARC
  8
_0-0_0
  6
CONTINUOUS
 62
    7
 10
-8.5970429090402973
 20
56.541622155062299
 40
0.3265289983301756
 50
336.48256146358682
 51
1.3961240913773743
  0
ARC
  8
_0-0_0
  6
CONTINUOUS
 62
    7
 10
-8.5036153207245064
 20
56.494636859915289
 40
0.222188950473868
 50
305.86626880496311
 51
337.9789928805655
  0
LINE
  8
_0-0_0
  6
CONTINUOUS
 62
    7
 10
-8.3734358440216141
 20
56.314577887470037
 11
-8.4490608440216164
 21
56.282152887470033
  0
LINE
  8
_0-0_0
  6
CONTINUOUS
 62
    7
 10
-8.4490608440216164
 20
56.282152887470033
 11
-8.5648108440216077
 21
56.272027887470031
  0
LINE
  8
_0-0_0
  6
CONTINUOUS
 62
    7
 10
-8.5648108440216077
 20
56.272027887470031
 11
-8.8369608440216183
 21
56.272027887470031
  0
LINE
  8
_0-0_0
  6
CONTINUOUS
 62
    7
 10
-8.728460844021626
 20
56.375252887470026
 11
-8.5882358440216109
 21
56.375252887470026
  0
ARC
  8
_0-0_0
  6
CONTINUOUS
 62
    7
 10
-8.5564624163749983
 20
56.580296196409662
 40
0.2074905039883289
 50
261.19152787661585
 51
307.75778849050482
  0
ARC
  8
_0-0_0
  6
CONTINUOUS
 62
    7
 10
-8.5631439264138436
 20
56.53809565567434
 40
0.18091489018269
 50
317.66368647578855
 51
4.2896667199092233
  0
ARC
  8
_0-0_0
  6
CONTINUOUS
 62
    7
 10
-8.5514096749334243
 20
56.569917136309655
 40
0.1696624821744132
 50
353.81161389294118
 51
40.023725731789703
  0
ARC
  8
_0-0_0
  6
CONTINUOUS
 62
    7
 10
-8.5293126179198993
 20
56.567060524273785
 40
0.1554455003865521
 50
46.079238218951502
 51
92.543457880523462
  0
LINE
  8
_0-0_0
  6
CONTINUOUS
 62
    7
 10
-8.5362108440216247
 20
56.722352887470038
 11
-8.728460844021626
 21
56.722352887470038
  0
LINE
  8
_0-0_0
  6
CONTINUOUS
 62
    7
 10
-8.728460844021626
 20
56.722352887470038
 11
-8.728460844021626
 21
56.375252887470026
  0
LINE
  8
_0-0_0
  6
CONTINUOUS
 62
    7
 10
-9.6586358440216173
 20
56.820402887470038
 11
-9.6586358440216173
 21
56.375252887470026
  0
LINE
  8
_0-0_0
  6
CONTINUOUS
 62
    7
 10
-9.6586358440216173
 20
56.375252887470026
 11
-9.3494358440216132
 21
56.375252887470026
  0
LINE
  8
_0-0_0
  6
CONTINUOUS
 62
    7
 10
-9.3494358440216132
 20
56.375252887470026
 11
-9.3494358440216132
 21
56.820402887470038
  0
LINE
  8
_0-0_0
  6
CONTINUOUS
 62
    7
 10
-9.3494358440216132
 20
56.820402887470038
 11
-9.2414358440216091
 21
56.820402887470038
  0
LINE
  8
_0-0_0
  6
CONTINUOUS
 62
    7
 10
-9.2414358440216091
 20
56.820402887470038
 11
-9.2414358440216091
 21
56.401727887470031
  0
LINE
  8
_0-0_0
  6
CONTINUOUS
 62
    7
 10
-9.2414358440216091
 20
56.401727887470031
 11
-9.2651858440216159
 21
56.299227887470039
  0
ARC
  8
_0-0_0
  6
CONTINUOUS
 62
    7
 10
-9.3477015927120561
 20
56.409197494492034
 40
0.1374851382896266
 50
266.11747689898385
 51
306.88274776515254
  0
LINE
  8
_0-0_0
  6
CONTINUOUS
 62
    7
 10
-9.357010844021616
 20
56.272027887470031
 11
-9.6515608440216312
 21
56.272027887470031
  0
ARC
  8
_0-0_0
  6
CONTINUOUS
 62
    7
 10
-9.6741453390691134
 20
56.363492634824098
 40
0.0942117796514607
 50
223.01036878915775
 51
283.87004471698651
  0
ARC
  8
_0-0_0
  6
CONTINUOUS
 62
    7
 10
-9.5806958121842598
 20
56.391526288256131
 40
0.1867438907290595
 50
176.86844001306937
 51
209.62038880308714
  0
LINE
  8
_0-0_0
  6
CONTINUOUS
 62
    7
 10
-9.7671608440216318
 20
56.401727887470031
 11
-9.7671608440216318
 21
56.820402887470038
  0
LINE
  8
_0-0_0
  6
CONTINUOUS
 62
    7
 10
-9.7671608440216318
 20
56.820402887470038
 11
-9.6586358440216173
 21
56.820402887470038
  0
LINE
  8
_0-0_0
  6
CONTINUOUS
 62
    7
 10
-10.479260844021624
 20
56.690677887470031
 11
-10.455485844021624
 21
56.792877887470027
  0
ARC
  8
_0-0_0
  6
CONTINUOUS
 62
    7
 10
-10.373048749017826
 20
56.684733084759941
 40
0.1359822524665139
 50
86.115189824905556
 51
127.31770793836927
  0
LINE
  8
_0-0_0
  6
CONTINUOUS
 62
    7
 10
-10.363835844021608
 20
56.820402887470038
 11
-10.020710844021622
 21
56.820402887470038
  0
ARC
  8
_0-0_0
  6
CONTINUOUS
 62
    7
 10
-9.9981410639715165
 20
56.728767716828841
 40
0.0943737223487119
 50
42.790704964605823
 51
103.83656841421359
  0
ARC
  8
_0-0_0
  6
CONTINUOUS
 62
    7
 10
-10.094371137364973
 20
56.700561576639259
 40
0.1894932282651214
 50
357.01017939452555
 51
29.155052802148951
  0
LINE
  8
_0-0_0
  6
CONTINUOUS
 62
    7
 10
-9.9051358440216148
 20
56.690677887470031
 11
-9.9051358440216148
 21
56.401727887470031
  0
LINE
  8
_0-0_0
  6
CONTINUOUS
 62
    7
 10
-9.9051358440216148
 20
56.401727887470031
 11
-9.9288858440216217
 21
56.299227887470039
  0
ARC
  8
_0-0_0
  6
CONTINUOUS
 62
    7
 10
-10.011651593334292
 20
56.410041476372029
 40
0.1383105952001807
 50
266.24447651933633
 51
306.75574814480018
  0
LINE
  8
_0-0_0
  6
CONTINUOUS
 62
    7
 10
-10.020710844021622
 20
56.272027887470031
 11
-10.071010844021615
 21
56.272027887470031
  0
LINE
  8
_0-0_0
  6
CONTINUOUS
 62
    7
 10
-10.071010844021615
 20
56.272027887470031
 11
-10.012260844021611
 21
56.130902887470029
  0
LINE
  8
_0-0_0
  6
CONTINUOUS
 62
    7
 10
-10.012260844021611
 20
56.130902887470029
 11
-10.119935844021612
 21
56.130902887470029
  0
LINE
  8
_0-0_0
  6
CONTINUOUS
 62
    7
 10
-10.119935844021612
 20
56.130902887470029
 11
-10.172460844021614
 21
56.272027887470031
  0
LINE
  8
_0-0_0
  6
CONTINUOUS
 62
    7
 10
-10.172460844021614
 20
56.272027887470031
 11
-10.363835844021608
 21
56.272027887470031
  0
ARC
  8
_0-0_0
  6
CONTINUOUS
 62
    7
 10
-10.386767286524375
 20
56.362767392787049
 40
0.0935922479719075
 50
222.75751820334511
 51
284.18268094992686
  0
ARC
  8
_0-0_0
  6
CONTINUOUS
 62
    7
 10
-10.290802214994031
 20
56.39143377617863
 40
0.1887395654923517
 50
176.87345923046402
 51
209.24433854743981
  0
LINE
  8
_0-0_0
  6
CONTINUOUS
 62
    7
 10
-10.479260844021624
 20
56.401727887470031
 11
-10.479260844021624
 21
56.690677887470031
  0
LINE
  8
_0-0_0
  6
CONTINUOUS
 62
    7
 10
-10.370910844021623
 20
56.375252887470026
 11
-10.211210844021608
 21
56.375252887470026
  0
LINE
  8
_0-0_0
  6
CONTINUOUS
 62
    7
 10
-10.211210844021608
 20
56.375252887470026
 11
-10.254460844021608
 21
56.494052887470019
  0
LINE
  8
_0-0_0
  6
CONTINUOUS
 62
    7
 10
-10.254460844021608
 20
56.494052887470019
 11
-10.175910844021629
 21
56.531427887470031
  0
LINE
  8
_0-0_0
  6
CONTINUOUS
 62
    7
 10
-10.175910844021629
 20
56.531427887470031
 11
-10.112860844021625
 21
56.375252887470026
  0
LINE
  8
_0-0_0
  6
CONTINUOUS
 62
    7
 10
-10.112860844021625
 20
56.375252887470026
 11
-10.013135844021619
 21
56.375252887470026
  0
LINE
  8
_0-0_0
  6
CONTINUOUS
 62
    7
 10
-10.013135844021619
 20
56.375252887470026
 11
-10.013135844021619
 21
56.722352887470038
  0
LINE
  8
_0-0_0
  6
CONTINUOUS
 62
    7
 10
-10.013135844021619
 20
56.722352887470038
 11
-10.370910844021623
 21
56.722352887470038
  0
LINE
  8
_0-0_0
  6
CONTINUOUS
 62
    7
 10
-10.370910844021623
 20
56.722352887470038
 11
-10.370910844021623
 21
56.375252887470026
  0
LINE
  8
_0-0_0
  6
CONTINUOUS
 62
    7
 10
-10.725910844021612
 20
56.272027887470031
 11
-10.725910844021612
 21
56.820402887470038
  0
LINE
  8
_0-0_0
  6
CONTINUOUS
 62
    7
 10
-10.725910844021612
 20
56.820402887470038
 11
-10.617385844021626
 21
56.820402887470038
  0
LINE
  8
_0-0_0
  6
CONTINUOUS
 62
    7
 10
-10.617385844021626
 20
56.820402887470038
 11
-10.617385844021626
 21
56.272027887470031
  0
LINE
  8
_0-0_0
  6
CONTINUOUS
 62
    7
 10
-10.617385844021626
 20
56.272027887470031
 11
-10.725910844021612
 21
56.272027887470031
  0
LINE
  8
_0-0_0
  6
CONTINUOUS
 62
    7
 10
-11.252510844021614
 20
56.272027887470031
 11
-11.252510844021614
 21
56.820402887470038
  0
LINE
  8
_0-0_0
  6
CONTINUOUS
 62
    7
 10
-11.252510844021614
 20
56.820402887470038
 11
-11.143985844021628
 21
56.820402887470038
  0
LINE
  8
_0-0_0
  6
CONTINUOUS
 62
    7
 10
-11.143985844021628
 20
56.820402887470038
 11
-11.143985844021628
 21
56.375252887470026
  0
LINE
  8
_0-0_0
  6
CONTINUOUS
 62
    7
 10
-11.143985844021628
 20
56.375252887470026
 11
-10.794310844021609
 21
56.375252887470026
  0
LINE
  8
_0-0_0
  6
CONTINUOUS
 62
    7
 10
-10.794310844021609
 20
56.375252887470026
 11
-10.794310844021609
 21
56.272027887470031
  0
LINE
  8
_0-0_0
  6
CONTINUOUS
 62
    7
 10
-10.794310844021609
 20
56.272027887470031
 11
-11.252510844021614
 21
56.272027887470031
  0
LINE
  8
_0-0_0
  6
CONTINUOUS
 62
    7
 10
-11.252510844021614
 20
58.771952887470036
 11
-11.252510844021614
 21
59.320327887470043
  0
LINE
  8
_0-0_0
  6
CONTINUOUS
 62
    7
 10
-11.252510844021614
 20
59.320327887470043
 11
-10.853910844021627
 21
59.320327887470043
  0
ARC
  8
_0-0_0
  6
CONTINUOUS
 62
    7
 10
-10.837928783856128
 20
59.230204398019325
 40
0.0915296104979517
 50
45.223774661825075
 51
100.05601092620515
  0
ARC
  8
_0-0_0
  6
CONTINUOUS
 62
    7
 10
-10.878734377567085
 20
59.218356316213686
 40
0.130322947616467
 50
358.06368779661761
 51
36.11946304442899
  0
LINE
  8
_0-0_0
  6
CONTINUOUS
 62
    7
 10
-10.74848584402163
 20
59.213952887470029
 11
-10.74848584402163
 21
59.091527887470036
  0
ARC
  8
_0-0_0
  6
CONTINUOUS
 62
    7
 10
-10.839720441483777
 20
59.075588612939569
 40
0.0926164793470422
 50
315.67755571938875
 51
9.9099264511880101
  0
ARC
  8
_0-0_0
  6
CONTINUOUS
 62
    7
 10
-10.849610702216765
 20
59.11296657166848
 40
0.1273612984564438
 50
268.06513584267094
 51
306.71994567204456
  0
LINE
  8
_0-0_0
  6
CONTINUOUS
 62
    7
 10
-10.853910844021627
 20
58.985677887470032
 11
-11.145710844021622
 21
58.985677887470032
  0
LINE
  8
_0-0_0
  6
CONTINUOUS
 62
    7
 10
-11.145710844021622
 20
58.985677887470032
 11
-11.145710844021622
 21
58.771952887470036
  0
LINE
  8
_0-0_0
  6
CONTINUOUS
 62
    7
 10
-11.145710844021622
 20
58.771952887470036
 11
-11.252510844021614
 21
58.771952887470036
  0
LINE
  8
_0-0_0
  6
CONTINUOUS
 62
    7
 10
-10.901960844021616
 20
59.225377887470032
 11
-11.145710844021622
 21
59.225377887470032
  0
LINE
  8
_0-0_0
  6
CONTINUOUS
 62
    7
 10
-11.145710844021622
 20
59.225377887470032
 11
-11.145710844021622
 21
59.080127887470027
  0
LINE
  8
_0-0_0
  6
CONTINUOUS
 62
    7
 10
-11.145710844021622
 20
59.080127887470027
 11
-10.901960844021616
 21
59.080127887470027
  0
LINE
  8
_0-0_0
  6
CONTINUOUS
 62
    7
 10
-10.901960844021616
 20
59.080127887470027
 11
-10.863385844021607
 21
59.089727887470033
  0
LINE
  8
_0-0_0
  6
CONTINUOUS
 62
    7
 10
-10.863385844021607
 20
59.089727887470033
 11
-10.853035844021619
 21
59.123702887470031
  0
LINE
  8
_0-0_0
  6
CONTINUOUS
 62
    7
 10
-10.853035844021619
 20
59.123702887470031
 11
-10.853035844021619
 21
59.18230288747003
  0
LINE
  8
_0-0_0
  6
CONTINUOUS
 62
    7
 10
-10.853035844021619
 20
59.18230288747003
 11
-10.863385844021607
 21
59.21577788747004
  0
LINE
  8
_0-0_0
  6
CONTINUOUS
 62
    7
 10
-10.863385844021607
 20
59.21577788747004
 11
-10.901960844021616
 21
59.225377887470032
  0
LINE
  8
_0-0_0
  6
CONTINUOUS
 62
    7
 10
-10.68131084402161
 20
59.190627887470029
 11
-10.657535844021609
 21
59.292802887470032
  0
ARC
  8
_0-0_0
  6
CONTINUOUS
 62
    7
 10
-10.575109434413733
 20
59.184693663925501
 40
0.1359474796244913
 50
86.109680831403324
 51
127.32321693186043
  0
LINE
  8
_0-0_0
  6
CONTINUOUS
 62
    7
 10
-10.565885844021622
 20
59.320327887470043
 11
-10.222760844021607
 21
59.320327887470043
  0
ARC
  8
_0-0_0
  6
CONTINUOUS
 62
    7
 10
-10.200171730759521
 20
59.228820086742004
 40
0.0942546849342111
 50
42.752194015123322
 51
103.86649637276751
  0
ARC
  8
_0-0_0
  6
CONTINUOUS
 62
    7
 10
-10.29611469190381
 20
59.200519810803527
 40
0.189187630962839
 50
357.00284835560655
 51
29.195164988293492
  0
LINE
  8
_0-0_0
  6
CONTINUOUS
 62
    7
 10
-10.107185844021629
 20
59.190627887470029
 11
-10.107185844021629
 21
58.901652887470036
  0
LINE
  8
_0-0_0
  6
CONTINUOUS
 62
    7
 10
-10.107185844021629
 20
58.901652887470036
 11
-10.130960844021629
 21
58.799177887470037
  0
ARC
  8
_0-0_0
  6
CONTINUOUS
 62
    7
 10
-10.21371342103167
 20
58.909828622346879
 40
0.1381722625225045
 50
266.24562637753451
 51
306.79178252331678
  0
LINE
  8
_0-0_0
  6
CONTINUOUS
 62
    7
 10
-10.222760844021607
 20
58.771952887470036
 11
-10.565885844021622
 21
58.771952887470036
  0
ARC
  8
_0-0_0
  6
CONTINUOUS
 62
    7
 10
-10.588786915870102
 20
58.862736297115106
 40
0.0936273814575235
 50
222.7533946281375
 51
284.15807903956107
  0
ARC
  8
_0-0_0
  6
CONTINUOUS
 62
    7
 10
-10.492910003391742
 20
58.891367860497368
 40
0.1886813677337267
 50
176.87525660056343
 51
209.24869446477189
  0
LINE
  8
_0-0_0
  6
CONTINUOUS
 62
    7
 10
-10.68131084402161
 20
58.901652887470036
 11
-10.68131084402161
 21
59.190627887470029
  0
LINE
  8
_0-0_0
  6
CONTINUOUS
 62
    7
 10
-10.572960844021608
 20
58.875177887470031
 11
-10.215185844021633
 21
58.875177887470031
  0
LINE
  8
_0-0_0
  6
CONTINUOUS
 62
    7
 10
-10.215185844021633
 20
58.875177887470031
 11
-10.215185844021633
 21
59.222277887470042
  0
LINE
  8
_0-0_0
  6
CONTINUOUS
 62
    7
 10
-10.215185844021633
 20
59.222277887470042
 11
-10.572960844021608
 21
59.222277887470042
  0
LINE
  8
_0-0_0
  6
CONTINUOUS
 62
    7
 10
-10.572960844021608
 20
59.222277887470042
 11
-10.572960844021608
 21
58.875177887470031
  0
LINE
  8
_0-0_0
  6
CONTINUOUS
 62
    7
 10
-9.8734358440216141
 20
58.771952887470036
 11
-10.052735844021626
 21
59.320327887470043
  0
LINE
  8
_0-0_0
  6
CONTINUOUS
 62
    7
 10
-10.052735844021626
 20
59.320327887470043
 11
-9.9407858440216188
 21
59.320327887470043
  0
LINE
  8
_0-0_0
  6
CONTINUOUS
 62
    7
 10
-9.9407858440216188
 20
59.320327887470043
 11
-9.8226108440216109
 21
58.952477887470039
  0
LINE
  8
_0-0_0
  6
CONTINUOUS
 62
    7
 10
-9.8226108440216109
 20
58.952477887470039
 11
-9.6987608440216349
 21
59.320327887470043
  0
LINE
  8
_0-0_0
  6
CONTINUOUS
 62
    7
 10
-9.6987608440216349
 20
59.320327887470043
 11
-9.6228108440216289
 21
59.320327887470043
  0
LINE
  8
_0-0_0
  6
CONTINUOUS
 62
    7
 10
-9.6228108440216289
 20
59.320327887470043
 11
-9.4967108440216208
 21
58.952477887470039
  0
LINE
  8
_0-0_0
  6
CONTINUOUS
 62
    7
 10
-9.4967108440216208
 20
58.952477887470039
 11
-9.3838858440216342
 21
59.320327887470043
  0
LINE
  8
_0-0_0
  6
CONTINUOUS
 62
    7
 10
-9.3838858440216342
 20
59.320327887470043
 11
-9.2869108440216195
 21
59.320327887470043
  0
LINE
  8
_0-0_0
  6
CONTINUOUS
 62
    7
 10
-9.2869108440216195
 20
59.320327887470043
 11
-9.4667358440216134
 21
58.771952887470036
  0
LINE
  8
_0-0_0
  6
CONTINUOUS
 62
    7
 10
-9.4667358440216134
 20
58.771952887470036
 11
-9.5399358440216275
 21
58.771952887470036
  0
LINE
  8
_0-0_0
  6
CONTINUOUS
 62
    7
 10
-9.5399358440216275
 20
58.771952887470036
 11
-9.6682858440216108
 21
59.151227887470029
  0
LINE
  8
_0-0_0
  6
CONTINUOUS
 62
    7
 10
-9.6682858440216108
 20
59.151227887470029
 11
-9.7983358440216222
 21
58.771952887470036
  0
LINE
  8
_0-0_0
  6
CONTINUOUS
 62
    7
 10
-9.7983358440216222
 20
58.771952887470036
 11
-9.8734358440216141
 21
58.771952887470036
  0
LINE
  8
_0-0_0
  6
CONTINUOUS
 62
    7
 10
-9.2233358440216335
 20
58.771952887470036
 11
-9.2233358440216335
 21
59.320327887470043
  0
LINE
  8
_0-0_0
  6
CONTINUOUS
 62
    7
 10
-9.2233358440216335
 20
59.320327887470043
 11
-8.7461858440216105
 21
59.320327887470043
  0
LINE
  8
_0-0_0
  6
CONTINUOUS
 62
    7
 10
-8.7461858440216105
 20
59.320327887470043
 11
-8.7461858440216105
 21
59.226927887470026
  0
LINE
  8
_0-0_0
  6
CONTINUOUS
 62
    7
 10
-8.7461858440216105
 20
59.226927887470026
 11
-9.1148108440216191
 21
59.226927887470026
  0
LINE
  8
_0-0_0
  6
CONTINUOUS
 62
    7
 10
-9.1148108440216191
 20
59.226927887470026
 11
-9.1148108440216191
 21
59.104502887470034
  0
LINE
  8
_0-0_0
  6
CONTINUOUS
 62
    7
 10
-9.1148108440216191
 20
59.104502887470034
 11
-8.8995108440216342
 21
59.104502887470034
  0
LINE
  8
_0-0_0
  6
CONTINUOUS
 62
    7
 10
-8.8995108440216342
 20
59.104502887470034
 11
-8.8995108440216342
 21
59.011127887470039
  0
LINE
  8
_0-0_0
  6
CONTINUOUS
 62
    7
 10
-8.8995108440216342
 20
59.011127887470039
 11
-9.1148108440216191
 21
59.011127887470039
  0
LINE
  8
_0-0_0
  6
CONTINUOUS
 62
    7
 10
-9.1148108440216191
 20
59.011127887470039
 11
-9.1148108440216191
 21
58.875177887470031
  0
LINE
  8
_0-0_0
  6
CONTINUOUS
 62
    7
 10
-9.1148108440216191
 20
58.875177887470031
 11
-8.7417108440216253
 21
58.875177887470031
  0
LINE
  8
_0-0_0
  6
CONTINUOUS
 62
    7
 10
-8.7417108440216253
 20
58.875177887470031
 11
-8.7417108440216253
 21
58.771952887470036
  0
LINE
  8
_0-0_0
  6
CONTINUOUS
 62
    7
 10
-8.7417108440216253
 20
58.771952887470036
 11
-9.2233358440216335
 21
58.771952887470036
  0
LINE
  8
_0-0_0
  6
CONTINUOUS
 62
    7
 10
-8.631810844021615
 20
58.771952887470036
 11
-8.631810844021615
 21
59.320327887470043
  0
LINE
  8
_0-0_0
  6
CONTINUOUS
 62
    7
 10
-8.631810844021615
 20
59.320327887470043
 11
-8.2330358440216145
 21
59.320327887470043
  0
ARC
  8
_0-0_0
  6
CONTINUOUS
 62
    7
 10
-8.2170712193677531
 20
59.230212713525162
 40
0.091518379659246
 50
45.223469652709987
 51
100.0461720037048
  0
ARC
  8
_0-0_0
  6
CONTINUOUS
 62
    7
 10
-8.2582337504039884
 20
59.218248891324762
 40
0.1306685455669371
 50
358.11594096362654
 51
36.067209877420048
  0
LINE
  8
_0-0_0
  6
CONTINUOUS
 62
    7
 10
-8.1276358440216114
 20
59.213952887470029
 11
-8.1276358440216114
 21
59.085327887470029
  0
ARC
  8
_0-0_0
  6
CONTINUOUS
 62
    7
 10
-8.2209152160639718
 20
59.069779101234801
 40
0.094566410537801
 50
316.24387161852837
 51
9.4636514849186515
  0
ARC
  8
_0-0_0
  6
CONTINUOUS
 62
    7
 10
-8.228622191639019
 20
59.104905203384646
 40
0.1260296243413061
 50
267.99304825915181
 51
307.09388503215382
  0
LINE
  8
_0-0_0
  6
CONTINUOUS
 62
    7
 10
-8.2330358440216145
 20
58.97895288747003
 11
-8.2940358440216215
 21
58.97895288747003
  0
LINE
  8
_0-0_0
  6
CONTINUOUS
 62
    7
 10
-8.2940358440216215
 20
58.97895288747003
 11
-8.0787108440216144
 21
58.771952887470036
  0
LINE
  8
_0-0_0
  6
CONTINUOUS
 62
    7
 10
-8.0787108440216144
 20
58.771952887470036
 11
-8.2344358440216325
 21
58.771952887470036
  0
LINE
  8
_0-0_0
  6
CONTINUOUS
 62
    7
 10
-8.2344358440216325
 20
58.771952887470036
 11
-8.4223608440216111
 21
58.97895288747003
  0
LINE
  8
_0-0_0
  6
CONTINUOUS
 62
    7
 10
-8.4223608440216111
 20
58.97895288747003
 11
-8.5250108440216223
 21
58.97895288747003
  0
LINE
  8
_0-0_0
  6
CONTINUOUS
 62
    7
 10
-8.5250108440216223
 20
58.97895288747003
 11
-8.5250108440216223
 21
58.771952887470036
  0
LINE
  8
_0-0_0
  6
CONTINUOUS
 62
    7
 10
-8.5250108440216223
 20
58.771952887470036
 11
-8.631810844021615
 21
58.771952887470036
  0
LINE
  8
_0-0_0
  6
CONTINUOUS
 62
    7
 10
-8.2811108440216259
 20
59.225377887470032
 11
-8.5250108440216223
 21
59.225377887470032
  0
LINE
  8
_0-0_0
  6
CONTINUOUS
 62
    7
 10
-8.5250108440216223
 20
59.225377887470032
 11
-8.5250108440216223
 21
59.072852887470034
  0
LINE
  8
_0-0_0
  6
CONTINUOUS
 62
    7
 10
-8.5250108440216223
 20
59.072852887470034
 11
-8.2811108440216259
 21
59.072852887470034
  0
LINE
  8
_0-0_0
  6
CONTINUOUS
 62
    7
 10
-8.2811108440216259
 20
59.072852887470034
 11
-8.2425108440216235
 21
59.082452887470026
  0
LINE
  8
_0-0_0
  6
CONTINUOUS
 62
    7
 10
-8.2425108440216235
 20
59.082452887470026
 11
-8.2321858440216289
 21
59.116427887470039
  0
LINE
  8
_0-0_0
  6
CONTINUOUS
 62
    7
 10
-8.2321858440216289
 20
59.116427887470039
 11
-8.2321858440216289
 21
59.18230288747003
  0
LINE
  8
_0-0_0
  6
CONTINUOUS
 62
    7
 10
-8.2321858440216289
 20
59.18230288747003
 11
-8.2425108440216235
 21
59.21577788747004
  0
LINE
  8
_0-0_0
  6
CONTINUOUS
 62
    7
 10
-8.2425108440216235
 20
59.21577788747004
 11
-8.2811108440216259
 21
59.225377887470032
  0
LINE
  8
_0-0_0
  6
CONTINUOUS
 62
    7
 10
-15.38333584402163
 20
61.20445288747004
 11
-15.38333584402163
 21
61.656052887470025
  0
LINE
  8
_0-0_0
  6
CONTINUOUS
 62
    7
 10
-15.38333584402163
 20
61.656052887470025
 11
-15.29721084402162
 21
61.656052887470025
  0
LINE
  8
_0-0_0
  6
CONTINUOUS
 62
    7
 10
-15.29721084402162
 20
61.656052887470025
 11
-15.29721084402162
 21
61.289452887470034
  0
LINE
  8
_0-0_0
  6
CONTINUOUS
 62
    7
 10
-15.29721084402162
 20
61.289452887470034
 11
-15.01936084402162
 21
61.289452887470034
  0
LINE
  8
_0-0_0
  6
CONTINUOUS
 62
    7
 10
-15.01936084402162
 20
61.289452887470034
 11
-15.01936084402162
 21
61.20445288747004
  0
LINE
  8
_0-0_0
  6
CONTINUOUS
 62
    7
 10
-15.01936084402162
 20
61.20445288747004
 11
-15.38333584402163
 21
61.20445288747004
  0
LINE
  8
_0-0_0
  6
CONTINUOUS
 62
    7
 10
-14.96493584402161
 20
61.20445288747004
 11
-14.96493584402161
 21
61.656052887470025
  0
LINE
  8
_0-0_0
  6
CONTINUOUS
 62
    7
 10
-14.96493584402161
 20
61.656052887470025
 11
-14.878810844021629
 21
61.656052887470025
  0
LINE
  8
_0-0_0
  6
CONTINUOUS
 62
    7
 10
-14.878810844021629
 20
61.656052887470025
 11
-14.878810844021629
 21
61.20445288747004
  0
LINE
  8
_0-0_0
  6
CONTINUOUS
 62
    7
 10
-14.878810844021629
 20
61.20445288747004
 11
-14.96493584402161
 21
61.20445288747004
  0
LINE
  8
_0-0_0
  6
CONTINUOUS
 62
    7
 10
-14.769085844021632
 20
61.549227887470025
 11
-14.750135844021614
 21
61.633402887470027
  0
ARC
  8
_0-0_0
  6
CONTINUOUS
 62
    7
 10
-14.68279065378276
 20
61.545284270421149
 40
0.11090656120769
 50
87.142042985579323
 51
127.38909157186384
  0
LINE
  8
_0-0_0
  6
CONTINUOUS
 62
    7
 10
-14.677260844021632
 20
61.656052887470025
 11
-14.404760844021624
 21
61.656052887470025
  0
LINE
  8
_0-0_0
  6
CONTINUOUS
 62
    7
 10
-14.404760844021624
 20
61.656052887470025
 11
-14.331910844021607
 21
61.633402887470027
  0
ARC
  8
_0-0_0
  6
CONTINUOUS
 62
    7
 10
-14.482717609336177
 20
61.555231758688194
 40
0.1698629030708851
 50
357.97443619978611
 51
27.400097772963253
  0
LINE
  8
_0-0_0
  6
CONTINUOUS
 62
    7
 10
-14.312960844021617
 20
61.549227887470025
 11
-14.312960844021617
 21
61.311252887470047
  0
LINE
  8
_0-0_0
  6
CONTINUOUS
 62
    7
 10
-14.312960844021617
 20
61.311252887470047
 11
-14.331910844021607
 21
61.226877887470039
  0
ARC
  8
_0-0_0
  6
CONTINUOUS
 62
    7
 10
-14.399209491041532
 20
61.31596171680782
 40
0.1116469280374227
 50
267.14994125470753
 51
307.06933288287053
  0
LINE
  8
_0-0_0
  6
CONTINUOUS
 62
    7
 10
-14.404760844021624
 20
61.20445288747004
 11
-14.444735844021622
 21
61.20445288747004
  0
LINE
  8
_0-0_0
  6
CONTINUOUS
 62
    7
 10
-14.444735844021622
 20
61.20445288747004
 11
-14.398035844021635
 21
61.08822788747004
  0
LINE
  8
_0-0_0
  6
CONTINUOUS
 62
    7
 10
-14.398035844021635
 20
61.08822788747004
 11
-14.483560844021625
 21
61.08822788747004
  0
LINE
  8
_0-0_0
  6
CONTINUOUS
 62
    7
 10
-14.483560844021625
 20
61.08822788747004
 11
-14.525260844021616
 21
61.20445288747004
  0
LINE
  8
_0-0_0
  6
CONTINUOUS
 62
    7
 10
-14.525260844021616
 20
61.20445288747004
 11
-14.677260844021632
 21
61.20445288747004
  0
LINE
  8
_0-0_0
  6
CONTINUOUS
 62
    7
 10
-14.677260844021632
 20
61.20445288747004
 11
-14.750135844021614
 21
61.226877887470039
  0
ARC
  8
_0-0_0
  6
CONTINUOUS
 62
    7
 10
-14.600198105726278
 20
61.304868307656079
 40
0.169008375549625
 50
177.83503901167711
 51
207.48128821345693
  0
LINE
  8
_0-0_0
  6
CONTINUOUS
 62
    7
 10
-14.769085844021632
 20
61.311252887470047
 11
-14.769085844021632
 21
61.549227887470025
  0
LINE
  8
_0-0_0
  6
CONTINUOUS
 62
    7
 10
-14.682960844021622
 20
61.289452887470034
 11
-14.556085844021609
 21
61.289452887470034
  0
LINE
  8
_0-0_0
  6
CONTINUOUS
 62
    7
 10
-14.556085844021609
 20
61.289452887470034
 11
-14.590460844021621
 21
61.387302887470028
  0
LINE
  8
_0-0_0
  6
CONTINUOUS
 62
    7
 10
-14.590460844021621
 20
61.387302887470028
 11
-14.528110844021612
 21
61.418102887470027
  0
LINE
  8
_0-0_0
  6
CONTINUOUS
 62
    7
 10
-14.528110844021612
 20
61.418102887470027
 11
-14.477960844021609
 21
61.289452887470034
  0
LINE
  8
_0-0_0
  6
CONTINUOUS
 62
    7
 10
-14.477960844021609
 20
61.289452887470034
 11
-14.39873584402163
 21
61.289452887470034
  0
LINE
  8
_0-0_0
  6
CONTINUOUS
 62
    7
 10
-14.39873584402163
 20
61.289452887470034
 11
-14.39873584402163
 21
61.575327887470038
  0
LINE
  8
_0-0_0
  6
CONTINUOUS
 62
    7
 10
-14.39873584402163
 20
61.575327887470038
 11
-14.682960844021622
 21
61.575327887470038
  0
LINE
  8
_0-0_0
  6
CONTINUOUS
 62
    7
 10
-14.682960844021622
 20
61.575327887470038
 11
-14.682960844021622
 21
61.289452887470034
  0
LINE
  8
_0-0_0
  6
CONTINUOUS
 62
    7
 10
-14.117010844021635
 20
61.656052887470025
 11
-14.117010844021635
 21
61.289452887470034
  0
LINE
  8
_0-0_0
  6
CONTINUOUS
 62
    7
 10
-14.117010844021635
 20
61.289452887470034
 11
-13.871460844021627
 21
61.289452887470034
  0
LINE
  8
_0-0_0
  6
CONTINUOUS
 62
    7
 10
-13.871460844021627
 20
61.289452887470034
 11
-13.871460844021627
 21
61.656052887470025
  0
LINE
  8
_0-0_0
  6
CONTINUOUS
 62
    7
 10
-13.871460844021627
 20
61.656052887470025
 11
-13.785585844021611
 21
61.656052887470025
  0
LINE
  8
_0-0_0
  6
CONTINUOUS
 62
    7
 10
-13.785585844021611
 20
61.656052887470025
 11
-13.785585844021611
 21
61.311252887470047
  0
LINE
  8
_0-0_0
  6
CONTINUOUS
 62
    7
 10
-13.785585844021611
 20
61.311252887470047
 11
-13.804460844021619
 21
61.226877887470039
  0
ARC
  8
_0-0_0
  6
CONTINUOUS
 62
    7
 10
-13.871983746902842
 20
61.31669023584891
 40
0.1123636966944085
 50
267.28262201312384
 51
306.93665212445921
  0
LINE
  8
_0-0_0
  6
CONTINUOUS
 62
    7
 10
-13.877310844021608
 20
61.20445288747004
 11
-14.11141084402162
 21
61.20445288747004
  0
LINE
  8
_0-0_0
  6
CONTINUOUS
 62
    7
 10
-14.11141084402162
 20
61.20445288747004
 11
-14.184110844021617
 21
61.226877887470039
  0
ARC
  8
_0-0_0
  6
CONTINUOUS
 62
    7
 10
-14.035606138722599
 20
61.304893954004484
 40
0.1677502731248388
 50
177.8275602420421
 51
207.71492488776067
  0
LINE
  8
_0-0_0
  6
CONTINUOUS
 62
    7
 10
-14.20323584402162
 20
61.311252887470047
 11
-14.20323584402162
 21
61.656052887470025
  0
LINE
  8
_0-0_0
  6
CONTINUOUS
 62
    7
 10
-14.20323584402162
 20
61.656052887470025
 11
-14.117010844021635
 21
61.656052887470025
  0
LINE
  8
_0-0_0
  6
CONTINUOUS
 62
    7
 10
-13.667860844021632
 20
61.20445288747004
 11
-13.667860844021632
 21
61.656052887470025
  0
LINE
  8
_0-0_0
  6
CONTINUOUS
 62
    7
 10
-13.667860844021632
 20
61.656052887470025
 11
-13.581635844021619
 21
61.656052887470025
  0
LINE
  8
_0-0_0
  6
CONTINUOUS
 62
    7
 10
-13.581635844021619
 20
61.656052887470025
 11
-13.581635844021619
 21
61.20445288747004
  0
LINE
  8
_0-0_0
  6
CONTINUOUS
 62
    7
 10
-13.581635844021619
 20
61.20445288747004
 11
-13.667860844021632
 21
61.20445288747004
  0
LINE
  8
_0-0_0
  6
CONTINUOUS
 62
    7
 10
-13.464260844021609
 20
61.20445288747004
 11
-13.464260844021609
 21
61.656052887470025
  0
LINE
  8
_0-0_0
  6
CONTINUOUS
 62
    7
 10
-13.464260844021609
 20
61.656052887470025
 11
-13.226035844021609
 21
61.656052887470025
  0
ARC
  8
_0-0_0
  6
CONTINUOUS
 62
    7
 10
-13.211080737606309
 20
61.455900262665864
 40
0.2007105588251273
 50
45.041931386587713
 51
94.273115164443524
  0
ARC
  8
_0-0_0
  6
CONTINUOUS
 62
    7
 10
-13.253196803351997
 20
61.445173772131838
 40
0.2390946609348267
 50
357.08815084583824
 51
39.708765196446315
  0
LINE
  8
_0-0_0
  6
CONTINUOUS
 62
    7
 10
-13.014410844021612
 20
61.433027887470033
 11
-13.035760844021624
 21
61.319177887470047
  0
LINE
  8
_0-0_0
  6
CONTINUOUS
 62
    7
 10
-13.035760844021624
 20
61.319177887470047
 11
-13.095960844021633
 21
61.239502887470039
  0
LINE
  8
_0-0_0
  6
CONTINUOUS
 62
    7
 10
-13.095960844021633
 20
61.239502887470039
 11
-13.156085844021632
 21
61.212752887470046
  0
LINE
  8
_0-0_0
  6
CONTINUOUS
 62
    7
 10
-13.156085844021632
 20
61.212752887470046
 11
-13.248060844021623
 21
61.20445288747004
  0
LINE
  8
_0-0_0
  6
CONTINUOUS
 62
    7
 10
-13.248060844021623
 20
61.20445288747004
 11
-13.464260844021609
 21
61.20445288747004
  0
LINE
  8
_0-0_0
  6
CONTINUOUS
 62
    7
 10
-13.378035844021625
 20
61.289452887470034
 11
-13.266685844021609
 21
61.289452887470034
  0
ARC
  8
_0-0_0
  6
CONTINUOUS
 62
    7
 10
-13.239930714702254
 20
61.442069088302901
 40
0.1549436726734995
 50
260.05652763439963
 51
309.91509301431893
  0
ARC
  8
_0-0_0
  6
CONTINUOUS
 62
    7
 10
-13.260755629497268
 20
61.425197251162331
 40
0.1576596320111693
 50
319.70156050058233
 51
3.474785418062313
  0
ARC
  8
_0-0_0
  6
CONTINUOUS
 62
    7
 10
-13.24042410998949
 20
61.451441979975797
 40
0.1380507593175238
 50
353.05647327173489
 51
39.70190164247429
  0
ARC
  8
_0-0_0
  6
CONTINUOUS
 62
    7
 10
-13.221156094510562
 20
61.451847547461497
 40
0.1235510610015129
 50
45.273839341643566
 51
91.938694077830363
  0
LINE
  8
_0-0_0
  6
CONTINUOUS
 62
    7
 10
-13.225335844021615
 20
61.575327887470038
 11
-13.378035844021625
 21
61.575327887470038
  0
LINE
  8
_0-0_0
  6
CONTINUOUS
 62
    7
 10
-13.378035844021625
 20
61.575327887470038
 11
-13.378035844021625
 21
61.289452887470034
  0
LINE
  8
_0-0_0
  6
CONTINUOUS
 62
    7
 10
-12.959710844021615
 20
61.392427887470035
 11
-12.959710844021615
 21
61.482602887470023
  0
LINE
  8
_0-0_0
  6
CONTINUOUS
 62
    7
 10
-12.959710844021615
 20
61.482602887470023
 11
-12.792535844021629
 21
61.482602887470023
  0
LINE
  8
_0-0_0
  6
CONTINUOUS
 62
    7
 10
-12.792535844021629
 20
61.482602887470023
 11
-12.792535844021629
 21
61.392427887470035
  0
LINE
  8
_0-0_0
  6
CONTINUOUS
 62
    7
 10
-12.792535844021629
 20
61.392427887470035
 11
-12.959710844021615
 21
61.392427887470035
  0
LINE
  8
_0-0_0
  6
CONTINUOUS
 62
    7
 10
-12.705635844021614
 20
61.20445288747004
 11
-12.705635844021614
 21
61.656052887470025
  0
LINE
  8
_0-0_0
  6
CONTINUOUS
 62
    7
 10
-12.705635844021614
 20
61.656052887470025
 11
-12.619435844021623
 21
61.656052887470025
  0
LINE
  8
_0-0_0
  6
CONTINUOUS
 62
    7
 10
-12.619435844021623
 20
61.656052887470025
 11
-12.619435844021623
 21
61.289452887470034
  0
LINE
  8
_0-0_0
  6
CONTINUOUS
 62
    7
 10
-12.619435844021623
 20
61.289452887470034
 11
-12.341660844021632
 21
61.289452887470034
  0
LINE
  8
_0-0_0
  6
CONTINUOUS
 62
    7
 10
-12.341660844021632
 20
61.289452887470034
 11
-12.341660844021632
 21
61.20445288747004
  0
LINE
  8
_0-0_0
  6
CONTINUOUS
 62
    7
 10
-12.341660844021632
 20
61.20445288747004
 11
-12.705635844021614
 21
61.20445288747004
  0
LINE
  8
_0-0_0
  6
CONTINUOUS
 62
    7
 10
-12.287235844021623
 20
61.20445288747004
 11
-12.287235844021623
 21
61.656052887470025
  0
LINE
  8
_0-0_0
  6
CONTINUOUS
 62
    7
 10
-12.287235844021623
 20
61.656052887470025
 11
-11.908185844021617
 21
61.656052887470025
  0
LINE
  8
_0-0_0
  6
CONTINUOUS
 62
    7
 10
-11.908185844021617
 20
61.656052887470025
 11
-11.908185844021617
 21
61.579152887470045
  0
LINE
  8
_0-0_0
  6
CONTINUOUS
 62
    7
 10
-11.908185844021617
 20
61.579152887470045
 11
-12.201110844021613
 21
61.579152887470045
  0
LINE
  8
_0-0_0
  6
CONTINUOUS
 62
    7
 10
-12.201110844021613
 20
61.579152887470045
 11
-12.201110844021613
 21
61.47832788747003
  0
LINE
  8
_0-0_0
  6
CONTINUOUS
 62
    7
 10
-12.201110844021613
 20
61.47832788747003
 11
-12.030060844021634
 21
61.47832788747003
  0
LINE
  8
_0-0_0
  6
CONTINUOUS
 62
    7
 10
-12.030060844021634
 20
61.47832788747003
 11
-12.030060844021634
 21
61.401427887470049
  0
LINE
  8
_0-0_0
  6
CONTINUOUS
 62
    7
 10
-12.030060844021634
 20
61.401427887470049
 11
-12.201110844021613
 21
61.401427887470049
  0
LINE
  8
_0-0_0
  6
CONTINUOUS
 62
    7
 10
-12.201110844021613
 20
61.401427887470049
 11
-12.201110844021613
 21
61.289452887470034
  0
LINE
  8
_0-0_0
  6
CONTINUOUS
 62
    7
 10
-12.201110844021613
 20
61.289452887470034
 11
-11.90466084402162
 21
61.289452887470034
  0
LINE
  8
_0-0_0
  6
CONTINUOUS
 62
    7
 10
-11.90466084402162
 20
61.289452887470034
 11
-11.90466084402162
 21
61.20445288747004
  0
LINE
  8
_0-0_0
  6
CONTINUOUS
 62
    7
 10
-11.90466084402162
 20
61.20445288747004
 11
-12.287235844021623
 21
61.20445288747004
  0
LINE
  8
_0-0_0
  6
CONTINUOUS
 62
    7
 10
-11.888110844021625
 20
61.20445288747004
 11
-11.678660844021621
 21
61.656052887470025
  0
LINE
  8
_0-0_0
  6
CONTINUOUS
 62
    7
 10
-11.678660844021621
 20
61.656052887470025
 11
-11.595635844021629
 21
61.656052887470025
  0
LINE
  8
_0-0_0
  6
CONTINUOUS
 62
    7
 10
-11.595635844021629
 20
61.656052887470025
 11
-11.38333584402163
 21
61.20445288747004
  0
LINE
  8
_0-0_0
  6
CONTINUOUS
 62
    7
 10
-11.38333584402163
 20
61.20445288747004
 11
-11.480060844021622
 21
61.20445288747004
  0
LINE
  8
_0-0_0
  6
CONTINUOUS
 62
    7
 10
-11.480060844021622
 20
61.20445288747004
 11
-11.524485844021612
 21
61.303152887470048
  0
LINE
  8
_0-0_0
  6
CONTINUOUS
 62
    7
 10
-11.524485844021612
 20
61.303152887470048
 11
-11.759285844021619
 21
61.303152887470048
  0
LINE
  8
_0-0_0
  6
CONTINUOUS
 62
    7
 10
-11.759285844021619
 20
61.303152887470048
 11
-11.802335844021613
 21
61.20445288747004
  0
LINE
  8
_0-0_0
  6
CONTINUOUS
 62
    7
 10
-11.802335844021613
 20
61.20445288747004
 11
-11.888110844021625
 21
61.20445288747004
  0
LINE
  8
_0-0_0
  6
CONTINUOUS
 62
    7
 10
-11.72241084402161
 20
61.384752887470029
 11
-11.560235844021619
 21
61.384752887470029
  0
LINE
  8
_0-0_0
  6
CONTINUOUS
 62
    7
 10
-11.560235844021619
 20
61.384752887470029
 11
-11.640085844021613
 21
61.568477887470024
  0
LINE
  8
_0-0_0
  6
CONTINUOUS
 62
    7
 10
-11.640085844021613
 20
61.568477887470024
 11
-11.72241084402161
 21
61.384752887470029
  0
LINE
  8
_0-0_0
  6
CONTINUOUS
 62
    7
 10
-11.350335844021615
 20
61.20445288747004
 11
-11.350335844021615
 21
61.656052887470025
  0
LINE
  8
_0-0_0
  6
CONTINUOUS
 62
    7
 10
-11.350335844021615
 20
61.656052887470025
 11
-11.263435844021629
 21
61.656052887470025
  0
LINE
  8
_0-0_0
  6
CONTINUOUS
 62
    7
 10
-11.263435844021629
 20
61.656052887470025
 11
-11.263435844021629
 21
61.467602887470036
  0
LINE
  8
_0-0_0
  6
CONTINUOUS
 62
    7
 10
-11.263435844021629
 20
61.467602887470036
 11
-11.058110844021613
 21
61.656052887470025
  0
LINE
  8
_0-0_0
  6
CONTINUOUS
 62
    7
 10
-11.058110844021613
 20
61.656052887470025
 11
-10.933410844021623
 21
61.656052887470025
  0
LINE
  8
_0-0_0
  6
CONTINUOUS
 62
    7
 10
-10.933410844021623
 20
61.656052887470025
 11
-11.178610844021634
 21
61.443277887470046
  0
LINE
  8
_0-0_0
  6
CONTINUOUS
 62
    7
 10
-11.178610844021634
 20
61.443277887470046
 11
-10.903335844021612
 21
61.20445288747004
  0
LINE
  8
_0-0_0
  6
CONTINUOUS
 62
    7
 10
-10.903335844021612
 20
61.20445288747004
 11
-11.041660844021621
 21
61.20445288747004
  0
LINE
  8
_0-0_0
  6
CONTINUOUS
 62
    7
 10
-11.041660844021621
 20
61.20445288747004
 11
-11.263435844021629
 21
61.403102887470027
  0
LINE
  8
_0-0_0
  6
CONTINUOUS
 62
    7
 10
-11.263435844021629
 20
61.403102887470027
 11
-11.263435844021629
 21
61.20445288747004
  0
LINE
  8
_0-0_0
  6
CONTINUOUS
 62
    7
 10
-11.263435844021629
 20
61.20445288747004
 11
-11.350335844021615
 21
61.20445288747004
  0
LINE
  8
_0-0_0
  6
CONTINUOUS
 62
    7
 10
-10.86578584402163
 20
61.20445288747004
 11
-10.656335844021626
 21
61.656052887470025
  0
LINE
  8
_0-0_0
  6
CONTINUOUS
 62
    7
 10
-10.656335844021626
 20
61.656052887470025
 11
-10.573310844021634
 21
61.656052887470025
  0
LINE
  8
_0-0_0
  6
CONTINUOUS
 62
    7
 10
-10.573310844021634
 20
61.656052887470025
 11
-10.360910844021632
 21
61.20445288747004
  0
LINE
  8
_0-0_0
  6
CONTINUOUS
 62
    7
 10
-10.360910844021632
 20
61.20445288747004
 11
-10.457635844021624
 21
61.20445288747004
  0
LINE
  8
_0-0_0
  6
CONTINUOUS
 62
    7
 10
-10.457635844021624
 20
61.20445288747004
 11
-10.502160844021617
 21
61.303152887470048
  0
LINE
  8
_0-0_0
  6
CONTINUOUS
 62
    7
 10
-10.502160844021617
 20
61.303152887470048
 11
-10.736860844021621
 21
61.303152887470048
  0
LINE
  8
_0-0_0
  6
CONTINUOUS
 62
    7
 10
-10.736860844021621
 20
61.303152887470048
 11
-10.780010844021618
 21
61.20445288747004
  0
LINE
  8
_0-0_0
  6
CONTINUOUS
 62
    7
 10
-10.780010844021618
 20
61.20445288747004
 11
-10.86578584402163
 21
61.20445288747004
  0
LINE
  8
_0-0_0
  6
CONTINUOUS
 62
    7
 10
-10.700085844021615
 20
61.384752887470029
 11
-10.537810844021621
 21
61.384752887470029
  0
LINE
  8
_0-0_0
  6
CONTINUOUS
 62
    7
 10
-10.537810844021621
 20
61.384752887470029
 11
-10.617735844021624
 21
61.568477887470024
  0
LINE
  8
_0-0_0
  6
CONTINUOUS
 62
    7
 10
-10.617735844021624
 20
61.568477887470024
 11
-10.700085844021615
 21
61.384752887470029
  0
LINE
  8
_0-0_0
  6
CONTINUOUS
 62
    7
 10
-9.9660108440216248
 20
61.575327887470038
 11
-10.235085844021611
 21
61.575327887470038
  0
LINE
  8
_0-0_0
  6
CONTINUOUS
 62
    7
 10
-10.235085844021611
 20
61.575327887470038
 11
-10.235085844021611
 21
61.289452887470034
  0
LINE
  8
_0-0_0
  6
CONTINUOUS
 62
    7
 10
-10.235085844021611
 20
61.289452887470034
 11
-9.9660108440216248
 21
61.289452887470034
  0
LINE
  8
_0-0_0
  6
CONTINUOUS
 62
    7
 10
-9.9660108440216248
 20
61.289452887470034
 11
-9.9660108440216248
 21
61.38987788747005
  0
LINE
  8
_0-0_0
  6
CONTINUOUS
 62
    7
 10
-9.9660108440216248
 20
61.38987788747005
 11
-10.106835844021631
 21
61.38987788747005
  0
LINE
  8
_0-0_0
  6
CONTINUOUS
 62
    7
 10
-10.106835844021631
 20
61.38987788747005
 11
-10.106835844021631
 21
61.466802887470024
  0
LINE
  8
_0-0_0
  6
CONTINUOUS
 62
    7
 10
-10.106835844021631
 20
61.466802887470024
 11
-9.8823108440216316
 21
61.466802887470024
  0
LINE
  8
_0-0_0
  6
CONTINUOUS
 62
    7
 10
-9.8823108440216316
 20
61.466802887470024
 11
-9.8823108440216316
 21
61.311252887470047
  0
LINE
  8
_0-0_0
  6
CONTINUOUS
 62
    7
 10
-9.8823108440216316
 20
61.311252887470047
 11
-9.9012608440216212
 21
61.226877887470039
  0
ARC
  8
_0-0_0
  6
CONTINUOUS
 62
    7
 10
-9.9685594910415176
 20
61.315961716807806
 40
0.1116469280374147
 50
267.14994125470878
 51
307.06933288287178
  0
LINE
  8
_0-0_0
  6
CONTINUOUS
 62
    7
 10
-9.9741108440216095
 20
61.20445288747004
 11
-10.229485844021625
 21
61.20445288747004
  0
LINE
  8
_0-0_0
  6
CONTINUOUS
 62
    7
 10
-10.229485844021625
 20
61.20445288747004
 11
-10.302335844021613
 21
61.226877887470039
  0
ARC
  8
_0-0_0
  6
CONTINUOUS
 62
    7
 10
-10.151127159479316
 20
61.305153752768717
 40
0.1702679575530146
 50
177.94718009251895
 51
207.36914713261518
  0
LINE
  8
_0-0_0
  6
CONTINUOUS
 62
    7
 10
-10.321285844021631
 20
61.311252887470047
 11
-10.321285844021631
 21
61.549227887470025
  0
LINE
  8
_0-0_0
  6
CONTINUOUS
 62
    7
 10
-10.321285844021631
 20
61.549227887470025
 11
-10.302335844021613
 21
61.633402887470027
  0
ARC
  8
_0-0_0
  6
CONTINUOUS
 62
    7
 10
-10.235017116705635
 20
61.545363294314598
 40
0.1108277086762237
 50
87.139250648683429
 51
127.40302919324029
  0
LINE
  8
_0-0_0
  6
CONTINUOUS
 62
    7
 10
-10.229485844021625
 20
61.656052887470025
 11
-9.9741108440216095
 21
61.656052887470025
  0
LINE
  8
_0-0_0
  6
CONTINUOUS
 62
    7
 10
-9.9741108440216095
 20
61.656052887470025
 11
-9.9015858440216249
 21
61.633852887470027
  0
ARC
  8
_0-0_0
  6
CONTINUOUS
 62
    7
 10
-10.037836549765601
 20
61.558682666763957
 40
0.1556111078834991
 50
358.10167060486089
 51
28.885749215936769
  0
LINE
  8
_0-0_0
  6
CONTINUOUS
 62
    7
 10
-9.8823108440216316
 20
61.553527887470025
 11
-9.8823108440216316
 21
61.543277887470026
  0
LINE
  8
_0-0_0
  6
CONTINUOUS
 62
    7
 10
-9.8823108440216316
 20
61.543277887470026
 11
-9.9660108440216248
 21
61.524877887470041
  0
LINE
  8
_0-0_0
  6
CONTINUOUS
 62
    7
 10
-9.9660108440216248
 20
61.524877887470041
 11
-9.9660108440216248
 21
61.575327887470038
  0
LINE
  8
_0-0_0
  6
CONTINUOUS
 62
    7
 10
-9.8005608440216321
 20
61.20445288747004
 11
-9.8005608440216321
 21
61.656052887470025
  0
LINE
  8
_0-0_0
  6
CONTINUOUS
 62
    7
 10
-9.8005608440216321
 20
61.656052887470025
 11
-9.4214358440216159
 21
61.656052887470025
  0
LINE
  8
_0-0_0
  6
CONTINUOUS
 62
    7
 10
-9.4214358440216159
 20
61.656052887470025
 11
-9.4214358440216159
 21
61.579152887470045
  0
LINE
  8
_0-0_0
  6
CONTINUOUS
 62
    7
 10
-9.4214358440216159
 20
61.579152887470045
 11
-9.7143608440216127
 21
61.579152887470045
  0
LINE
  8
_0-0_0
  6
CONTINUOUS
 62
    7
 10
-9.7143608440216127
 20
61.579152887470045
 11
-9.7143608440216127
 21
61.47832788747003
  0
LINE
  8
_0-0_0
  6
CONTINUOUS
 62
    7
 10
-9.7143608440216127
 20
61.47832788747003
 11
-9.5433858440216142
 21
61.47832788747003
  0
LINE
  8
_0-0_0
  6
CONTINUOUS
 62
    7
 10
-9.5433858440216142
 20
61.47832788747003
 11
-9.5433858440216142
 21
61.401427887470049
  0
LINE
  8
_0-0_0
  6
CONTINUOUS
 62
    7
 10
-9.5433858440216142
 20
61.401427887470049
 11
-9.7143608440216127
 21
61.401427887470049
  0
LINE
  8
_0-0_0
  6
CONTINUOUS
 62
    7
 10
-9.7143608440216127
 20
61.401427887470049
 11
-9.7143608440216127
 21
61.289452887470034
  0
LINE
  8
_0-0_0
  6
CONTINUOUS
 62
    7
 10
-9.7143608440216127
 20
61.289452887470034
 11
-9.4179858440216293
 21
61.289452887470034
  0
LINE
  8
_0-0_0
  6
CONTINUOUS
 62
    7
 10
-9.4179858440216293
 20
61.289452887470034
 11
-9.4179858440216293
 21
61.20445288747004
  0
LINE
  8
_0-0_0
  6
CONTINUOUS
 62
    7
 10
-9.4179858440216293
 20
61.20445288747004
 11
-9.8005608440216321
 21
61.20445288747004
  0
LINE
  8
_0-0_0
  6
CONTINUOUS
 62
    7
 10
-9.1245608440216159
 20
61.20445288747004
 11
-9.1245608440216159
 21
61.656052887470025
  0
LINE
  8
_0-0_0
  6
CONTINUOUS
 62
    7
 10
-9.1245608440216159
 20
61.656052887470025
 11
-8.886335844021616
 21
61.656052887470025
  0
ARC
  8
_0-0_0
  6
CONTINUOUS
 62
    7
 10
-8.8714694155769251
 20
61.455477923840789
 40
0.2011251519068975
 50
45.093949095945987
 51
94.238958422212704
  0
ARC
  8
_0-0_0
  6
CONTINUOUS
 62
    7
 10
-8.9138067508685168
 20
61.445154491563201
 40
0.2394032313854015
 50
357.09652751168522
 51
39.65345544761292
  0
LINE
  8
_0-0_0
  6
CONTINUOUS
 62
    7
 10
-8.6747108440216181
 20
61.433027887470033
 11
-8.6960608440216305
 21
61.319177887470047
  0
LINE
  8
_0-0_0
  6
CONTINUOUS
 62
    7
 10
-8.6960608440216305
 20
61.319177887470047
 11
-8.7563608440216143
 21
61.239502887470039
  0
LINE
  8
_0-0_0
  6
CONTINUOUS
 62
    7
 10
-8.7563608440216143
 20
61.239502887470039
 11
-8.8163858440216103
 21
61.212752887470046
  0
LINE
  8
_0-0_0
  6
CONTINUOUS
 62
    7
 10
-8.8163858440216103
 20
61.212752887470046
 11
-8.9083608440216295
 21
61.20445288747004
  0
LINE
  8
_0-0_0
  6
CONTINUOUS
 62
    7
 10
-8.9083608440216295
 20
61.20445288747004
 11
-9.1245608440216159
 21
61.20445288747004
  0
LINE
  8
_0-0_0
  6
CONTINUOUS
 62
    7
 10
-9.0383358440216313
 20
61.289452887470034
 11
-8.9269858440216154
 21
61.289452887470034
  0
ARC
  8
_0-0_0
  6
CONTINUOUS
 62
    7
 10
-8.9003705108370781
 20
61.442591331894576
 40
0.1554340989657513
 50
260.14052659510276
 51
309.83109405361574
  0
ARC
  8
_0-0_0
  6
CONTINUOUS
 62
    7
 10
-8.9210556294972747
 20
61.425197251162331
 40
0.1576596320111693
 50
319.70156050058233
 51
3.474785418062313
  0
ARC
  8
_0-0_0
  6
CONTINUOUS
 62
    7
 10
-8.9001855363296016
 20
61.451600278264848
 40
0.137535452072433
 50
352.96388795643168
 51
39.794486957777515
  0
ARC
  8
_0-0_0
  6
CONTINUOUS
 62
    7
 10
-8.8814683717488521
 20
61.451816209552817
 40
0.1235819663505559
 50
45.280019647235683
 51
91.932513772238238
  0
LINE
  8
_0-0_0
  6
CONTINUOUS
 62
    7
 10
-8.8856358440216212
 20
61.575327887470038
 11
-9.0383358440216313
 21
61.575327887470038
  0
LINE
  8
_0-0_0
  6
CONTINUOUS
 62
    7
 10
-9.0383358440216313
 20
61.575327887470038
 11
-9.0383358440216313
 21
61.289452887470034
  0
LINE
  8
_0-0_0
  6
CONTINUOUS
 62
    7
 10
-8.5884858440216334
 20
61.20445288747004
 11
-8.5884858440216334
 21
61.656052887470025
  0
LINE
  8
_0-0_0
  6
CONTINUOUS
 62
    7
 10
-8.5884858440216334
 20
61.656052887470025
 11
-8.2093608440216173
 21
61.656052887470025
  0
LINE
  8
_0-0_0
  6
CONTINUOUS
 62
    7
 10
-8.2093608440216173
 20
61.656052887470025
 11
-8.2093608440216173
 21
61.579152887470045
  0
LINE
  8
_0-0_0
  6
CONTINUOUS
 62
    7
 10
-8.2093608440216173
 20
61.579152887470045
 11
-8.502285844021614
 21
61.579152887470045
  0
LINE
  8
_0-0_0
  6
CONTINUOUS
 62
    7
 10
-8.502285844021614
 20
61.579152887470045
 11
-8.502285844021614
 21
61.47832788747003
  0
LINE
  8
_0-0_0
  6
CONTINUOUS
 62
    7
 10
-8.502285844021614
 20
61.47832788747003
 11
-8.3313108440216155
 21
61.47832788747003
  0
LINE
  8
_0-0_0
  6
CONTINUOUS
 62
    7
 10
-8.3313108440216155
 20
61.47832788747003
 11
-8.3313108440216155
 21
61.401427887470049
  0
LINE
  8
_0-0_0
  6
CONTINUOUS
 62
    7
 10
-8.3313108440216155
 20
61.401427887470049
 11
-8.502285844021614
 21
61.401427887470049
  0
LINE
  8
_0-0_0
  6
CONTINUOUS
 62
    7
 10
-8.502285844021614
 20
61.401427887470049
 11
-8.502285844021614
 21
61.289452887470034
  0
LINE
  8
_0-0_0
  6
CONTINUOUS
 62
    7
 10
-8.502285844021614
 20
61.289452887470034
 11
-8.2059108440216306
 21
61.289452887470034
  0
LINE
  8
_0-0_0
  6
CONTINUOUS
 62
    7
 10
-8.2059108440216306
 20
61.289452887470034
 11
-8.2059108440216306
 21
61.20445288747004
  0
LINE
  8
_0-0_0
  6
CONTINUOUS
 62
    7
 10
-8.2059108440216306
 20
61.20445288747004
 11
-8.5884858440216334
 21
61.20445288747004
  0
LINE
  8
_0-0_0
  6
CONTINUOUS
 62
    7
 10
-7.8887858440216263
 20
61.575327887470038
 11
-7.8887858440216263
 21
61.20445288747004
  0
LINE
  8
_0-0_0
  6
CONTINUOUS
 62
    7
 10
-7.8887858440216263
 20
61.20445288747004
 11
-7.975010844021611
 21
61.20445288747004
  0
LINE
  8
_0-0_0
  6
CONTINUOUS
 62
    7
 10
-7.975010844021611
 20
61.20445288747004
 11
-7.975010844021611
 21
61.575327887470038
  0
LINE
  8
_0-0_0
  6
CONTINUOUS
 62
    7
 10
-7.975010844021611
 20
61.575327887470038
 11
-8.1449358440216173
 21
61.575327887470038
  0
LINE
  8
_0-0_0
  6
CONTINUOUS
 62
    7
 10
-8.1449358440216173
 20
61.575327887470038
 11
-8.1449358440216173
 21
61.656052887470025
  0
LINE
  8
_0-0_0
  6
CONTINUOUS
 62
    7
 10
-8.1449358440216173
 20
61.656052887470025
 11
-7.7181858440216189
 21
61.656052887470025
  0
LINE
  8
_0-0_0
  6
CONTINUOUS
 62
    7
 10
-7.7181858440216189
 20
61.656052887470025
 11
-7.7181858440216189
 21
61.575327887470038
  0
LINE
  8
_0-0_0
  6
CONTINUOUS
 62
    7
 10
-7.7181858440216189
 20
61.575327887470038
 11
-7.8887858440216263
 21
61.575327887470038
  0
LINE
  8
_0-0_0
  6
CONTINUOUS
 62
    7
 10
-7.6557358440216348
 20
61.20445288747004
 11
-7.6557358440216348
 21
61.656052887470025
  0
LINE
  8
_0-0_0
  6
CONTINUOUS
 62
    7
 10
-7.6557358440216348
 20
61.656052887470025
 11
-7.2766108440216186
 21
61.656052887470025
  0
LINE
  8
_0-0_0
  6
CONTINUOUS
 62
    7
 10
-7.2766108440216186
 20
61.656052887470025
 11
-7.2766108440216186
 21
61.579152887470045
  0
LINE
  8
_0-0_0
  6
CONTINUOUS
 62
    7
 10
-7.2766108440216186
 20
61.579152887470045
 11
-7.5695108440216217
 21
61.579152887470045
  0
LINE
  8
_0-0_0
  6
CONTINUOUS
 62
    7
 10
-7.5695108440216217
 20
61.579152887470045
 11
-7.5695108440216217
 21
61.47832788747003
  0
LINE
  8
_0-0_0
  6
CONTINUOUS
 62
    7
 10
-7.5695108440216217
 20
61.47832788747003
 11
-7.3985608440216168
 21
61.47832788747003
  0
LINE
  8
_0-0_0
  6
CONTINUOUS
 62
    7
 10
-7.3985608440216168
 20
61.47832788747003
 11
-7.3985608440216168
 21
61.401427887470049
  0
LINE
  8
_0-0_0
  6
CONTINUOUS
 62
    7
 10
-7.3985608440216168
 20
61.401427887470049
 11
-7.5695108440216217
 21
61.401427887470049
  0
LINE
  8
_0-0_0
  6
CONTINUOUS
 62
    7
 10
-7.5695108440216217
 20
61.401427887470049
 11
-7.5695108440216217
 21
61.289452887470034
  0
LINE
  8
_0-0_0
  6
CONTINUOUS
 62
    7
 10
-7.5695108440216217
 20
61.289452887470034
 11
-7.273160844021632
 21
61.289452887470034
  0
LINE
  8
_0-0_0
  6
CONTINUOUS
 62
    7
 10
-7.273160844021632
 20
61.289452887470034
 11
-7.273160844021632
 21
61.20445288747004
  0
LINE
  8
_0-0_0
  6
CONTINUOUS
 62
    7
 10
-7.273160844021632
 20
61.20445288747004
 11
-7.6557358440216348
 21
61.20445288747004
  0
LINE
  8
_0-0_0
  6
CONTINUOUS
 62
    7
 10
-6.8751608440216145
 20
61.575327887470038
 11
-7.1074608440216096
 21
61.575327887470038
  0
LINE
  8
_0-0_0
  6
CONTINUOUS
 62
    7
 10
-7.1074608440216096
 20
61.575327887470038
 11
-7.1074608440216096
 21
61.289452887470034
  0
LINE
  8
_0-0_0
  6
CONTINUOUS
 62
    7
 10
-7.1074608440216096
 20
61.289452887470034
 11
-6.8751608440216145
 21
61.289452887470034
  0
LINE
  8
_0-0_0
  6
CONTINUOUS
 62
    7
 10
-6.8751608440216145
 20
61.289452887470034
 11
-6.8751608440216145
 21
61.386427887470049
  0
LINE
  8
_0-0_0
  6
CONTINUOUS
 62
    7
 10
-6.8751608440216145
 20
61.386427887470049
 11
-6.7889608440216094
 21
61.364652887470029
  0
LINE
  8
_0-0_0
  6
CONTINUOUS
 62
    7
 10
-6.7889608440216094
 20
61.364652887470029
 11
-6.7889608440216094
 21
61.311252887470047
  0
LINE
  8
_0-0_0
  6
CONTINUOUS
 62
    7
 10
-6.7889608440216094
 20
61.311252887470047
 11
-6.8080608440216182
 21
61.226877887470039
  0
ARC
  8
_0-0_0
  6
CONTINUOUS
 62
    7
 10
-6.8754896329591091
 20
61.316420257291895
 40
0.1120913804486903
 50
267.30461367623218
 51
306.98112921229688
  0
LINE
  8
_0-0_0
  6
CONTINUOUS
 62
    7
 10
-6.8807608440216157
 20
61.20445288747004
 11
-7.1017608440216193
 21
61.20445288747004
  0
LINE
  8
_0-0_0
  6
CONTINUOUS
 62
    7
 10
-7.1017608440216193
 20
61.20445288747004
 11
-7.174710844021611
 21
61.226877887470039
  0
ARC
  8
_0-0_0
  6
CONTINUOUS
 62
    7
 10
-7.0240246472186314
 20
61.304885651495596
 40
0.1696807035440776
 50
177.84948192671973
 51
207.369858965395
  0
LINE
  8
_0-0_0
  6
CONTINUOUS
 62
    7
 10
-7.1935858440216194
 20
61.311252887470047
 11
-7.1935858440216194
 21
61.549227887470025
  0
LINE
  8
_0-0_0
  6
CONTINUOUS
 62
    7
 10
-7.1935858440216194
 20
61.549227887470025
 11
-7.174710844021611
 21
61.633402887470027
  0
ARC
  8
_0-0_0
  6
CONTINUOUS
 62
    7
 10
-7.1072777947051478
 20
61.545019733048946
 40
0.1111701314451842
 50
87.155460055859606
 51
127.34228044914919
  0
LINE
  8
_0-0_0
  6
CONTINUOUS
 62
    7
 10
-7.1017608440216193
 20
61.656052887470025
 11
-6.8807608440216157
 21
61.656052887470025
  0
LINE
  8
_0-0_0
  6
CONTINUOUS
 62
    7
 10
-6.8807608440216157
 20
61.656052887470025
 11
-6.8080608440216182
 21
61.633402887470027
  0
ARC
  8
_0-0_0
  6
CONTINUOUS
 62
    7
 10
-6.957290962317181
 20
61.555286872359304
 40
0.1684391285399184
 50
357.93854803814367
 51
27.630263806276982
  0
LINE
  8
_0-0_0
  6
CONTINUOUS
 62
    7
 10
-6.7889608440216094
 20
61.549227887470025
 11
-6.7889608440216094
 21
61.506502887470049
  0
LINE
  8
_0-0_0
  6
CONTINUOUS
 62
    7
 10
-6.7889608440216094
 20
61.506502887470049
 11
-6.8751608440216145
 21
61.489827887470028
  0
LINE
  8
_0-0_0
  6
CONTINUOUS
 62
    7
 10
-6.8751608440216145
 20
61.489827887470028
 11
-6.8751608440216145
 21
61.575327887470038
  0
LINE
  8
_0-0_0
  6
CONTINUOUS
 62
    7
 10
-6.4819108440216198
 20
61.575327887470038
 11
-6.4819108440216198
 21
61.20445288747004
  0
LINE
  8
_0-0_0
  6
CONTINUOUS
 62
    7
 10
-6.4819108440216198
 20
61.20445288747004
 11
-6.5681108440216249
 21
61.20445288747004
  0
LINE
  8
_0-0_0
  6
CONTINUOUS
 62
    7
 10
-6.5681108440216249
 20
61.20445288747004
 11
-6.5681108440216249
 21
61.575327887470038
  0
LINE
  8
_0-0_0
  6
CONTINUOUS
 62
    7
 10
-6.5681108440216249
 20
61.575327887470038
 11
-6.738060844021625
 21
61.575327887470038
  0
LINE
  8
_0-0_0
  6
CONTINUOUS
 62
    7
 10
-6.738060844021625
 20
61.575327887470038
 11
-6.738060844021625
 21
61.656052887470025
  0
LINE
  8
_0-0_0
  6
CONTINUOUS
 62
    7
 10
-6.738060844021625
 20
61.656052887470025
 11
-6.3112858440216186
 21
61.656052887470025
  0
LINE
  8
_0-0_0
  6
CONTINUOUS
 62
    7
 10
-6.3112858440216186
 20
61.656052887470025
 11
-6.3112858440216186
 21
61.575327887470038
  0
LINE
  8
_0-0_0
  6
CONTINUOUS
 62
    7
 10
-6.3112858440216186
 20
61.575327887470038
 11
-6.4819108440216198
 21
61.575327887470038
  0
LINE
  8
_0-0_0
  6
CONTINUOUS
 62
    7
 10
-6.2423108440216097
 20
61.549227887470025
 11
-6.2234358440216155
 21
61.633402887470027
  0
ARC
  8
_0-0_0
  6
CONTINUOUS
 62
    7
 10
-6.1560027947051381
 20
61.545019733048946
 40
0.1111701314451842
 50
87.155460055859606
 51
127.34228044914919
  0
LINE
  8
_0-0_0
  6
CONTINUOUS
 62
    7
 10
-6.1504858440216097
 20
61.656052887470025
 11
-5.8779858440216159
 21
61.656052887470025
  0
LINE
  8
_0-0_0
  6
CONTINUOUS
 62
    7
 10
-5.8779858440216159
 20
61.656052887470025
 11
-5.8051108440216197
 21
61.633402887470027
  0
ARC
  8
_0-0_0
  6
CONTINUOUS
 62
    7
 10
-5.9556316018125344
 20
61.555296146482348
 40
0.169579366414869
 50
357.9492795444641
 51
27.425254428300018
  0
LINE
  8
_0-0_0
  6
CONTINUOUS
 62
    7
 10
-5.7861608440216159
 20
61.549227887470025
 11
-5.7861608440216159
 21
61.311252887470047
  0
LINE
  8
_0-0_0
  6
CONTINUOUS
 62
    7
 10
-5.7861608440216159
 20
61.311252887470047
 11
-5.8051108440216197
 21
61.226877887470039
  0
ARC
  8
_0-0_0
  6
CONTINUOUS
 62
    7
 10
-5.8724359584083672
 20
61.316041525638781
 40
0.1117265653221097
 50
267.15272784355
 51
307.05549246851581
  0
LINE
  8
_0-0_0
  6
CONTINUOUS
 62
    7
 10
-5.8779858440216159
 20
61.20445288747004
 11
-6.1504858440216097
 21
61.20445288747004
  0
LINE
  8
_0-0_0
  6
CONTINUOUS
 62
    7
 10
-6.1504858440216097
 20
61.20445288747004
 11
-6.2234358440216155
 21
61.226877887470039
  0
ARC
  8
_0-0_0
  6
CONTINUOUS
 62
    7
 10
-6.072749647218636
 20
61.304885651495596
 40
0.1696807035440776
 50
177.84948192671973
 51
207.369858965395
  0
LINE
  8
_0-0_0
  6
CONTINUOUS
 62
    7
 10
-6.2423108440216097
 20
61.311252887470047
 11
-6.2423108440216097
 21
61.549227887470025
  0
LINE
  8
_0-0_0
  6
CONTINUOUS
 62
    7
 10
-6.1561608440216204
 20
61.289452887470034
 11
-5.8720358440216174
 21
61.289452887470034
  0
LINE
  8
_0-0_0
  6
CONTINUOUS
 62
    7
 10
-5.8720358440216174
 20
61.289452887470034
 11
-5.8720358440216174
 21
61.575327887470038
  0
LINE
  8
_0-0_0
  6
CONTINUOUS
 62
    7
 10
-5.8720358440216174
 20
61.575327887470038
 11
-6.1561608440216204
 21
61.575327887470038
  0
LINE
  8
_0-0_0
  6
CONTINUOUS
 62
    7
 10
-6.1561608440216204
 20
61.575327887470038
 11
-6.1561608440216204
 21
61.289452887470034
  0
LINE
  8
_0-0_0
  6
CONTINUOUS
 62
    7
 10
-5.6764358440216185
 20
61.20445288747004
 11
-5.6764358440216185
 21
61.656052887470025
  0
LINE
  8
_0-0_0
  6
CONTINUOUS
 62
    7
 10
-5.6764358440216185
 20
61.656052887470025
 11
-5.3597608440216149
 21
61.656052887470025
  0
LINE
  8
_0-0_0
  6
CONTINUOUS
 62
    7
 10
-5.3597608440216149
 20
61.656052887470025
 11
-5.2957608440216077
 21
61.635352887470049
  0
ARC
  8
_0-0_0
  6
CONTINUOUS
 62
    7
 10
-5.3916705211649187
 20
61.570587812031732
 40
0.1157289124042194
 50
358.95534773383639
 51
34.030036923998836
  0
LINE
  8
_0-0_0
  6
CONTINUOUS
 62
    7
 10
-5.2759608440216184
 20
61.568477887470024
 11
-5.2759608440216184
 21
61.462502887470023
  0
LINE
  8
_0-0_0
  6
CONTINUOUS
 62
    7
 10
-5.2759608440216184
 20
61.462502887470023
 11
-5.2957608440216077
 21
61.395877887470036
  0
ARC
  8
_0-0_0
  6
CONTINUOUS
 62
    7
 10
-5.3577013399303794
 20
61.47698966408467
 40
0.1020575589508456
 50
268.84370247703987
 51
307.36693434424211
  0
LINE
  8
_0-0_0
  6
CONTINUOUS
 62
    7
 10
-5.3597608440216149
 20
61.374952887470045
 11
-5.4080608440216125
 21
61.374952887470045
  0
LINE
  8
_0-0_0
  6
CONTINUOUS
 62
    7
 10
-5.4080608440216125
 20
61.374952887470045
 11
-5.2371108440216076
 21
61.20445288747004
  0
LINE
  8
_0-0_0
  6
CONTINUOUS
 62
    7
 10
-5.2371108440216076
 20
61.20445288747004
 11
-5.3607858440216276
 21
61.20445288747004
  0
LINE
  8
_0-0_0
  6
CONTINUOUS
 62
    7
 10
-5.3607858440216276
 20
61.20445288747004
 11
-5.5100358440216226
 21
61.374952887470045
  0
LINE
  8
_0-0_0
  6
CONTINUOUS
 62
    7
 10
-5.5100358440216226
 20
61.374952887470045
 11
-5.5916108440216092
 21
61.374952887470045
  0
LINE
  8
_0-0_0
  6
CONTINUOUS
 62
    7
 10
-5.5916108440216092
 20
61.374952887470045
 11
-5.5916108440216092
 21
61.20445288747004
  0
LINE
  8
_0-0_0
  6
CONTINUOUS
 62
    7
 10
-5.5916108440216092
 20
61.20445288747004
 11
-5.6764358440216185
 21
61.20445288747004
  0
LINE
  8
_0-0_0
  6
CONTINUOUS
 62
    7
 10
-5.3979108440216166
 20
61.577852887470044
 11
-5.5916108440216092
 21
61.577852887470044
  0
LINE
  8
_0-0_0
  6
CONTINUOUS
 62
    7
 10
-5.5916108440216092
 20
61.577852887470044
 11
-5.5916108440216092
 21
61.452252887470024
  0
LINE
  8
_0-0_0
  6
CONTINUOUS
 62
    7
 10
-5.5916108440216092
 20
61.452252887470024
 11
-5.3979108440216166
 21
61.452252887470024
  0
LINE
  8
_0-0_0
  6
CONTINUOUS
 62
    7
 10
-5.3979108440216166
 20
61.452252887470024
 11
-5.3672358440216144
 21
61.460152887470031
  0
LINE
  8
_0-0_0
  6
CONTINUOUS
 62
    7
 10
-5.3672358440216144
 20
61.460152887470031
 11
-5.3589858440216247
 21
61.488152887470036
  0
LINE
  8
_0-0_0
  6
CONTINUOUS
 62
    7
 10
-5.3589858440216247
 20
61.488152887470036
 11
-5.3589858440216247
 21
61.542427887470026
  0
LINE
  8
_0-0_0
  6
CONTINUOUS
 62
    7
 10
-5.3589858440216247
 20
61.542427887470026
 11
-5.3672358440216144
 21
61.569977887470031
  0
LINE
  8
_0-0_0
  6
CONTINUOUS
 62
    7
 10
-5.3672358440216144
 20
61.569977887470031
 11
-5.3979108440216166
 21
61.577852887470044
  0
LINE
  8
_0-0_0
  6
CONTINUOUS
 62
    7
 10
-6.4456358440216164
 20
62.127402887470041
 11
-6.4456358440216164
 21
63.224127887470047
  0
LINE
  8
_0-0_0
  6
CONTINUOUS
 62
    7
 10
-6.4456358440216164
 20
63.224127887470047
 11
-6.2598608440216097
 21
63.224127887470047
  0
LINE
  8
_0-0_0
  6
CONTINUOUS
 62
    7
 10
-6.2598608440216097
 20
63.224127887470047
 11
-5.7947858440216251
 21
62.561077887470049
  0
LINE
  8
_0-0_0
  6
CONTINUOUS
 62
    7
 10
-5.7947858440216251
 20
62.561077887470049
 11
-5.3400358440216209
 21
63.224127887470047
  0
LINE
  8
_0-0_0
  6
CONTINUOUS
 62
    7
 10
-5.3400358440216209
 20
63.224127887470047
 11
-5.1560608440216171
 21
63.224127887470047
  0
LINE
  8
_0-0_0
  6
CONTINUOUS
 62
    7
 10
-5.1560608440216171
 20
63.224127887470047
 11
-5.1560608440216171
 21
62.127402887470041
  0
LINE
  8
_0-0_0
  6
CONTINUOUS
 62
    7
 10
-5.1560608440216171
 20
62.127402887470041
 11
-5.3689608440216219
 21
62.127402887470041
  0
LINE
  8
_0-0_0
  6
CONTINUOUS
 62
    7
 10
-5.3689608440216219
 20
62.127402887470041
 11
-5.3689608440216219
 21
62.804952887470037
  0
LINE
  8
_0-0_0
  6
CONTINUOUS
 62
    7
 10
-5.3689608440216219
 20
62.804952887470037
 11
-5.3666358440216086
 21
62.854727887470048
  0
LINE
  8
_0-0_0
  6
CONTINUOUS
 62
    7
 10
-5.3666358440216086
 20
62.854727887470048
 11
-5.3605358440216193
 21
62.922177887470028
  0
LINE
  8
_0-0_0
  6
CONTINUOUS
 62
    7
 10
-5.3605358440216193
 20
62.922177887470028
 11
-5.3932608440216185
 21
62.852152887470027
  0
LINE
  8
_0-0_0
  6
CONTINUOUS
 62
    7
 10
-5.3932608440216185
 20
62.852152887470027
 11
-5.418410844021615
 21
62.807027887470042
  0
LINE
  8
_0-0_0
  6
CONTINUOUS
 62
    7
 10
-5.418410844021615
 20
62.807027887470042
 11
-5.7891858440216097
 21
62.259177887470045
  0
LINE
  8
_0-0_0
  6
CONTINUOUS
 62
    7
 10
-5.7891858440216097
 20
62.259177887470045
 11
-5.8349108440216142
 21
62.259177887470045
  0
LINE
  8
_0-0_0
  6
CONTINUOUS
 62
    7
 10
-5.8349108440216142
 20
62.259177887470045
 11
-6.2066358440216121
 21
62.809102887470033
  0
LINE
  8
_0-0_0
  6
CONTINUOUS
 62
    7
 10
-6.2066358440216121
 20
62.809102887470033
 11
-6.2416108440216149
 21
62.867702887470045
  0
LINE
  8
_0-0_0
  6
CONTINUOUS
 62
    7
 10
-6.2416108440216149
 20
62.867702887470045
 11
-6.2654608440216251
 21
62.921152887470043
  0
LINE
  8
_0-0_0
  6
CONTINUOUS
 62
    7
 10
-6.2654608440216251
 20
62.921152887470043
 11
-6.2612358440216198
 21
62.858927887470031
  0
LINE
  8
_0-0_0
  6
CONTINUOUS
 62
    7
 10
-6.2612358440216198
 20
62.858927887470031
 11
-6.2598608440216097
 21
62.804952887470037
  0
LINE
  8
_0-0_0
  6
CONTINUOUS
 62
    7
 10
-6.2598608440216097
 20
62.804952887470037
 11
-6.2598608440216097
 21
62.127402887470041
  0
LINE
  8
_0-0_0
  6
CONTINUOUS
 62
    7
 10
-6.2598608440216097
 20
62.127402887470041
 11
-6.4456358440216164
 21
62.127402887470041
  0
LINE
  8
_0-0_0
  6
CONTINUOUS
 62
    7
 10
-7.9539108440216211
 20
62.127402887470041
 11
-7.3954608440216276
 21
63.224127887470047
  0
LINE
  8
_0-0_0
  6
CONTINUOUS
 62
    7
 10
-7.3954608440216276
 20
63.224127887470047
 11
-7.1741108440216195
 21
63.224127887470047
  0
LINE
  8
_0-0_0
  6
CONTINUOUS
 62
    7
 10
-7.1741108440216195
 20
63.224127887470047
 11
-6.6082608440216077
 21
62.127402887470041
  0
LINE
  8
_0-0_0
  6
CONTINUOUS
 62
    7
 10
-6.6082608440216077
 20
62.127402887470041
 11
-6.8659358440216138
 21
62.127402887470041
  0
LINE
  8
_0-0_0
  6
CONTINUOUS
 62
    7
 10
-6.8659358440216138
 20
62.127402887470041
 11
-6.9845358440216145
 21
62.367077887470032
  0
LINE
  8
_0-0_0
  6
CONTINUOUS
 62
    7
 10
-6.9845358440216145
 20
62.367077887470032
 11
-7.6102608440216244
 21
62.367077887470032
  0
LINE
  8
_0-0_0
  6
CONTINUOUS
 62
    7
 10
-7.6102608440216244
 20
62.367077887470032
 11
-7.7250608440216268
 21
62.127402887470041
  0
LINE
  8
_0-0_0
  6
CONTINUOUS
 62
    7
 10
-7.7250608440216268
 20
62.127402887470041
 11
-7.9539108440216211
 21
62.127402887470041
  0
LINE
  8
_0-0_0
  6
CONTINUOUS
 62
    7
 10
-7.5121608440216079
 20
62.565277887470032
 11
-7.0798108440216154
 21
62.565277887470032
  0
LINE
  8
_0-0_0
  6
CONTINUOUS
 62
    7
 10
-7.0798108440216154
 20
62.565277887470032
 11
-7.2927108440216131
 21
63.011452887470043
  0
LINE
  8
_0-0_0
  6
CONTINUOUS
 62
    7
 10
-7.2927108440216131
 20
63.011452887470043
 11
-7.5121608440216079
 21
62.565277887470032
  0
LINE
  8
_0-0_0
  6
CONTINUOUS
 62
    7
 10
-8.3596608440216329
 20
62.127402887470041
 11
-8.3596608440216329
 21
63.015577887470045
  0
LINE
  8
_0-0_0
  6
CONTINUOUS
 62
    7
 10
-8.3596608440216329
 20
63.015577887470045
 11
-8.5698108440216316
 21
63.015577887470045
  0
LINE
  8
_0-0_0
  6
CONTINUOUS
 62
    7
 10
-8.5698108440216316
 20
63.015577887470045
 11
-8.5698108440216316
 21
63.161877887470041
  0
LINE
  8
_0-0_0
  6
CONTINUOUS
 62
    7
 10
-8.5698108440216316
 20
63.161877887470041
 11
-8.151410844021612
 21
63.232452887470046
  0
LINE
  8
_0-0_0
  6
CONTINUOUS
 62
    7
 10
-8.151410844021612
 20
63.232452887470046
 11
-8.151410844021612
 21
62.127402887470041
  0
LINE
  8
_0-0_0
  6
CONTINUOUS
 62
    7
 10
-8.151410844021612
 20
62.127402887470041
 11
-8.3596608440216329
 21
62.127402887470041
  0
LINE
  8
_0-0_0
  6
CONTINUOUS
 62
    7
 10
-9.3223858440216105
 20
62.583952887470048
 11
-9.3223858440216105
 21
62.80290288747004
  0
LINE
  8
_0-0_0
  6
CONTINUOUS
 62
    7
 10
-9.3223858440216105
 20
62.80290288747004
 11
-8.7779858440216145
 21
62.80290288747004
  0
LINE
  8
_0-0_0
  6
CONTINUOUS
 62
    7
 10
-8.7779858440216145
 20
62.80290288747004
 11
-8.7779858440216145
 21
62.583952887470048
  0
LINE
  8
_0-0_0
  6
CONTINUOUS
 62
    7
 10
-8.7779858440216145
 20
62.583952887470048
 11
-9.3223858440216105
 21
62.583952887470048
  0
LINE
  8
_0-0_0
  6
CONTINUOUS
 62
    7
 10
-9.7211608440216111
 20
63.032152887470033
 11
-10.367360844021633
 21
63.032152887470033
  0
LINE
  8
_0-0_0
  6
CONTINUOUS
 62
    7
 10
-10.367360844021633
 20
63.032152887470033
 11
-10.367360844021633
 21
62.796652887470032
  0
LINE
  8
_0-0_0
  6
CONTINUOUS
 62
    7
 10
-10.367360844021633
 20
62.796652887470032
 11
-9.7519858440216325
 21
62.796652887470032
  0
ARC
  8
_0-0_0
  6
CONTINUOUS
 62
    7
 10
-9.7129534268907065
 20
62.559940440371747
 40
0.2399089664817631
 50
49.237494306195515
 51
99.363461975638359
  0
ARC
  8
_0-0_0
  6
CONTINUOUS
 62
    7
 10
-9.8112466625974406
 20
62.569626821783302
 40
0.3075471327594813
 50
353.95288466434585
 51
34.010762750702945
  0
LINE
  8
_0-0_0
  6
CONTINUOUS
 62
    7
 10
-9.5054108440216254
 20
62.537227887470024
 11
-9.5054108440216254
 21
62.386802887470026
  0
ARC
  8
_0-0_0
  6
CONTINUOUS
 62
    7
 10
-9.7724601647794458
 20
62.344746461465732
 40
0.2703406789321056
 50
323.0865982867698
 51
8.9497542981812792
  0
ARC
  8
_0-0_0
  6
CONTINUOUS
 62
    7
 10
-9.7204514353511655
 20
62.390885974480682
 40
0.2653634414738648
 50
263.1751402571075
 51
308.21033444735053
  0
LINE
  8
_0-0_0
  6
CONTINUOUS
 62
    7
 10
-9.7519858440216325
 20
62.127402887470041
 11
-10.361760844021617
 21
62.127402887470041
  0
ARC
  8
_0-0_0
  6
CONTINUOUS
 62
    7
 10
-10.400871715572791
 20
62.363705185552689
 40
0.2395170898968035
 50
229.20514217068526
 51
279.39794201410496
  0
ARC
  8
_0-0_0
  6
CONTINUOUS
 62
    7
 10
-10.303105553634126
 20
62.354234507713272
 40
0.3068883357370638
 50
173.90804071539
 51
214.05560669965882
  0
LINE
  8
_0-0_0
  6
CONTINUOUS
 62
    7
 10
-10.608260844021615
 20
62.386802887470026
 11
-10.608260844021615
 21
62.416877887470037
  0
LINE
  8
_0-0_0
  6
CONTINUOUS
 62
    7
 10
-10.608260844021615
 20
62.416877887470037
 11
-10.405685844021619
 21
62.463602887470032
  0
LINE
  8
_0-0_0
  6
CONTINUOUS
 62
    7
 10
-10.405685844021619
 20
62.463602887470032
 11
-10.405685844021619
 21
62.333877887470024
  0
LINE
  8
_0-0_0
  6
CONTINUOUS
 62
    7
 10
-10.405685844021619
 20
62.333877887470024
 11
-9.7080608440216309
 21
62.333877887470024
  0
LINE
  8
_0-0_0
  6
CONTINUOUS
 62
    7
 10
-9.7080608440216309
 20
62.333877887470024
 11
-9.7080608440216309
 21
62.583952887470048
  0
LINE
  8
_0-0_0
  6
CONTINUOUS
 62
    7
 10
-9.7080608440216309
 20
62.583952887470048
 11
-10.323435844021631
 21
62.583952887470048
  0
ARC
  8
_0-0_0
  6
CONTINUOUS
 62
    7
 10
-10.362219665523341
 20
62.817432661676065
 40
0.2366790860502248
 50
228.94681957831301
 51
279.43140527592527
  0
ARC
  8
_0-0_0
  6
CONTINUOUS
 62
    7
 10
-10.260876902895106
 20
62.810791921370267
 40
0.3089767725772236
 50
173.95541612722806
 51
213.79031791837104
  0
LINE
  8
_0-0_0
  6
CONTINUOUS
 62
    7
 10
-10.568135844021626
 20
62.843327887470025
 11
-10.568135844021626
 21
62.964727887470033
  0
ARC
  8
_0-0_0
  6
CONTINUOUS
 62
    7
 10
-10.301229036461038
 20
63.007269318378093
 40
0.2702758170201166
 50
143.2047714685238
 51
189.05601872375189
  0
ARC
  8
_0-0_0
  6
CONTINUOUS
 62
    7
 10
-10.354684783302886
 20
62.963946434207685
 40
0.2620513019008282
 50
83.151329471809092
 51
128.4567903381274
  0
LINE
  8
_0-0_0
  6
CONTINUOUS
 62
    7
 10
-10.323435844021631
 20
63.224127887470047
 11
-9.7631858440216348
 21
63.224127887470047
  0
ARC
  8
_0-0_0
  6
CONTINUOUS
 62
    7
 10
-9.7261810518408112
 20
62.983936802103983
 40
0.2430249208078764
 50
50.404499829979258
 51
98.758353258445808
  0
ARC
  8
_0-0_0
  6
CONTINUOUS
 62
    7
 10
-9.7843367131498695
 20
63.010016625857986
 40
0.2671547936473546
 50
354.282759067906
 51
37.109776621793237
  0
LINE
  8
_0-0_0
  6
CONTINUOUS
 62
    7
 10
-9.5185108440216339
 20
62.983402887470049
 11
-9.5185108440216339
 21
62.960602887470031
  0
LINE
  8
_0-0_0
  6
CONTINUOUS
 62
    7
 10
-9.5185108440216339
 20
62.960602887470031
 11
-9.7211608440216111
 21
62.907652887470036
  0
LINE
  8
_0-0_0
  6
CONTINUOUS
 62
    7
 10
-9.7211608440216111
 20
62.907652887470036
 11
-9.7211608440216111
 21
63.032152887470033
  0
LINE
  8
_0-0_0
  6
CONTINUOUS
 62
    7
 10
-12.086735844021618
 20
62.127402887470041
 11
-11.528285844021624
 21
63.224127887470047
  0
LINE
  8
_0-0_0
  6
CONTINUOUS
 62
    7
 10
-11.528285844021624
 20
63.224127887470047
 11
-11.306935844021623
 21
63.224127887470047
  0
LINE
  8
_0-0_0
  6
CONTINUOUS
 62
    7
 10
-11.306935844021623
 20
63.224127887470047
 11
-10.741085844021612
 21
62.127402887470041
  0
LINE
  8
_0-0_0
  6
CONTINUOUS
 62
    7
 10
-10.741085844021612
 20
62.127402887470041
 11
-10.998760844021618
 21
62.127402887470041
  0
LINE
  8
_0-0_0
  6
CONTINUOUS
 62
    7
 10
-10.998760844021618
 20
62.127402887470041
 11
-11.117360844021633
 21
62.367077887470032
  0
LINE
  8
_0-0_0
  6
CONTINUOUS
 62
    7
 10
-11.117360844021633
 20
62.367077887470032
 11
-11.743085844021621
 21
62.367077887470032
  0
LINE
  8
_0-0_0
  6
CONTINUOUS
 62
    7
 10
-11.743085844021621
 20
62.367077887470032
 11
-11.857985844021627
 21
62.127402887470041
  0
LINE
  8
_0-0_0
  6
CONTINUOUS
 62
    7
 10
-11.857985844021627
 20
62.127402887470041
 11
-12.086735844021618
 21
62.127402887470041
  0
LINE
  8
_0-0_0
  6
CONTINUOUS
 62
    7
 10
-11.644985844021633
 20
62.565277887470032
 11
-11.212635844021619
 21
62.565277887470032
  0
LINE
  8
_0-0_0
  6
CONTINUOUS
 62
    7
 10
-11.212635844021619
 20
62.565277887470032
 11
-11.42553584402161
 21
63.011452887470043
  0
LINE
  8
_0-0_0
  6
CONTINUOUS
 62
    7
 10
-11.42553584402161
 20
63.011452887470043
 11
-11.644985844021633
 21
62.565277887470032
  0
LINE
  8
_0-0_0
  6
CONTINUOUS
 62
    7
 10
-14.064635844021623
 20
62.127402887470041
 11
-14.064635844021623
 21
63.224127887470047
  0
LINE
  8
_0-0_0
  6
CONTINUOUS
 62
    7
 10
-14.064635844021623
 20
63.224127887470047
 11
-13.429635844021632
 21
63.224127887470047
  0
ARC
  8
_0-0_0
  6
CONTINUOUS
 62
    7
 10
-13.398690940929342
 20
62.626374981745528
 40
0.5985533587989379
 50
49.722977032919644
 51
92.963483704422615
  0
ARC
  8
_0-0_0
  6
CONTINUOUS
 62
    7
 10
-13.38649927554853
 20
62.719353201408467
 40
0.5222134687001156
 50
355.95627494033027
 51
44.13968340553393
  0
ARC
  8
_0-0_0
  6
CONTINUOUS
 62
    7
 10
-13.507205117583183
 20
62.670464962447411
 40
0.6417326595754371
 50
335.66033178257607
 51
1.0770768653104272
  0
ARC
  8
_0-0_0
  6
CONTINUOUS
 62
    7
 10
-13.345811604480346
 20
62.594079318540977
 40
0.4632123510614398
 50
304.53143392795909
 51
336.04115518565737
  0
ARC
  8
_0-0_0
  6
CONTINUOUS
 62
    7
 10
-13.336933122660909
 20
62.608748790479268
 40
0.4705241096487287
 50
281.47388806098076
 51
302.62784822149627
  0
ARC
  8
_0-0_0
  6
CONTINUOUS
 62
    7
 10
-13.483715806808718
 20
63.565451385773798
 40
1.4380563267312756
 50
269.81094544475593
 51
279.62251272721551
  0
LINE
  8
_0-0_0
  6
CONTINUOUS
 62
    7
 10
-13.488460844021617
 20
62.127402887470041
 11
-14.064635844021623
 21
62.127402887470041
  0
LINE
  8
_0-0_0
  6
CONTINUOUS
 62
    7
 10
-13.834935844021615
 20
62.333877887470024
 11
-13.537985844021634
 21
62.333877887470024
  0
ARC
  8
_0-0_0
  6
CONTINUOUS
 62
    7
 10
-13.485986481184241
 20
62.851329342575909
 40
0.5200576334664117
 50
264.26153823152396
 51
303.13237737692873
  0
ARC
  8
_0-0_0
  6
CONTINUOUS
 62
    7
 10
-13.428423034045764
 20
62.652140410373704
 40
0.3274609756934995
 50
313.80904564985644
 51
6.0498767347932221
  0
ARC
  8
_0-0_0
  6
CONTINUOUS
 62
    7
 10
-13.457216010248501
 20
62.712850013352224
 40
0.3553970063690744
 50
355.77276307099527
 51
40.017487066568911
  0
ARC
  8
_0-0_0
  6
CONTINUOUS
 62
    7
 10
-13.404767490060991
 20
62.709143447265134
 40
0.3197105432863581
 50
46.584576172872467
 51
94.119740217730879
  0
LINE
  8
_0-0_0
  6
CONTINUOUS
 62
    7
 10
-13.427735844021626
 20
63.028027887470046
 11
-13.834935844021615
 21
63.028027887470046
  0
LINE
  8
_0-0_0
  6
CONTINUOUS
 62
    7
 10
-13.834935844021615
 20
63.028027887470046
 11
-13.834935844021615
 21
62.333877887470024
  0
LINE
  8
_0-0_0
  6
CONTINUOUS
 62
    7
 10
-12.62296084402162
 20
62.583952887470048
 11
-12.62296084402162
 21
62.80290288747004
  0
LINE
  8
_0-0_0
  6
CONTINUOUS
 62
    7
 10
-12.62296084402162
 20
62.80290288747004
 11
-12.07846084402162
 21
62.80290288747004
  0
LINE
  8
_0-0_0
  6
CONTINUOUS
 62
    7
 10
-12.07846084402162
 20
62.80290288747004
 11
-12.07846084402162
 21
62.583952887470048
  0
LINE
  8
_0-0_0
  6
CONTINUOUS
 62
    7
 10
-12.07846084402162
 20
62.583952887470048
 11
-12.62296084402162
 21
62.583952887470048
  0
LINE
  8
_0-0_0
  6
CONTINUOUS
 62
    7
 10
-15.574810844021627
 20
62.127402887470041
 11
-15.016435844021615
 21
63.224127887470047
  0
LINE
  8
_0-0_0
  6
CONTINUOUS
 62
    7
 10
-15.016435844021615
 20
63.224127887470047
 11
-14.795085844021614
 21
63.224127887470047
  0
LINE
  8
_0-0_0
  6
CONTINUOUS
 62
    7
 10
-14.795085844021614
 20
63.224127887470047
 11
-14.229160844021621
 21
62.127402887470041
  0
LINE
  8
_0-0_0
  6
CONTINUOUS
 62
    7
 10
-14.229160844021621
 20
62.127402887470041
 11
-14.48693584402163
 21
62.127402887470041
  0
LINE
  8
_0-0_0
  6
CONTINUOUS
 62
    7
 10
-14.48693584402163
 20
62.127402887470041
 11
-14.605435844021613
 21
62.367077887470032
  0
LINE
  8
_0-0_0
  6
CONTINUOUS
 62
    7
 10
-14.605435844021613
 20
62.367077887470032
 11
-15.23116084402163
 21
62.367077887470032
  0
LINE
  8
_0-0_0
  6
CONTINUOUS
 62
    7
 10
-15.23116084402163
 20
62.367077887470032
 11
-15.346060844021636
 21
62.127402887470041
  0
LINE
  8
_0-0_0
  6
CONTINUOUS
 62
    7
 10
-15.346060844021636
 20
62.127402887470041
 11
-15.574810844021627
 21
62.127402887470041
  0
LINE
  8
_0-0_0
  6
CONTINUOUS
 62
    7
 10
-15.133060844021614
 20
62.565277887470032
 11
-14.700685844021635
 21
62.565277887470032
  0
LINE
  8
_0-0_0
  6
CONTINUOUS
 62
    7
 10
-14.700685844021635
 20
62.565277887470032
 11
-14.913610844021619
 21
63.011452887470043
  0
LINE
  8
_0-0_0
  6
CONTINUOUS
 62
    7
 10
-14.913610844021619
 20
63.011452887470043
 11
-15.133060844021614
 21
62.565277887470032
  0
TEXT
  8
_0-0_0
 62
    7
 10
26.977980648648625
 20
71.898245774147213
 40
0.625
 41
1
 50
0
  1
61.5
  0
TEXT
  8
_0-0_0
 62
    7
 10
98.279937537180245
 20
-10.564113622843543
 40
2
 41
1
 50
0
  1
mm
  0
LINE
  8
_0-0_0
  6
CONTINUOUS
 62
    7
 10
38.764425936942295
 20
-2.8991376975878893
 11
104.58621875595702
 21
-2.8991376975878822
  0
LINE
  8
_0-0_0
  6
CONTINUOUS
 62
    7
 10
38.764425936942295
 20
-2.8991376975878893
 11
38.764425936942295
 21
-20.899137697587882
  0
LINE
  8
_0-0_0
  6
CONTINUOUS
 62
    7
 10
38.764425936942295
 20
-20.899137697587882
 11
104.58621875595702
 21
-20.899137697587882
  0
LINE
  8
_0-0_0
  6
CONTINUOUS
 62
    7
 10
38.764425936942295
 20
-7.3991376975878822
 11
104.58621875595702
 21
-7.3991376975878822
  0
LINE
  8
_0-0_0
  6
CONTINUOUS
 62
    7
 10
38.764425936942295
 20
-11.899137697587882
 11
104.58621875595702
 21
-11.899137697587882
  0
LINE
  8
_0-0_0
  6
CONTINUOUS
 62
    7
 10
38.764425936942295
 20
-16.399137697587882
 11
104.58621875595702
 21
-16.399137697587882
  0
TEXT
  8
_0-0_0
 62
    7
 10
39.764425936942295
 20
-19.821337426068943
 40
2
 41
1
 50
0
  1
TATSUTA ELECTRIC WIRE & CABLE CO., LTD. 
  0
TEXT
  8
_0-0_0
 62
    7
 10
88.350335819271336
 20
-6.24134371236633
 40
2
 41
1
 50
0
  1
尺度
  0
TEXT
  8
_0-0_0
 62
    7
 10
88.350335819271336
 20
-10.671874174779816
 40
2
 41
1
 50
0
  1
単位
  0
TEXT
  8
_0-0_0
 62
    7
 10
52.336218755957006
 20
-6.1380134501820933
 40
2
 41
1
 50
0
  1
漏水検知器　外形寸法図
  0
TEXT
  8
_0-0_0
 62
    7
 10
52.336218755957006
 20
-10.731879615791996
 40
2
 41
1
 50
0
  1
AD-AS-1AM
  0
TEXT
  8
_0-0_0
 62
    7
 10
52.336218755957006
 20
-15.390448121762596
 40
2
 41
1
 50
0
  1
TTS-KSW3006-1
  0
TEXT
  8
_0-0_0
 62
    7
 10
43.203658536585365
 20
-6.1756220267433264
 40
2
 41
1
 50
0
  1
名称
  0
TEXT
  8
_0-0_0
 62
    7
 10
43.203658536585365
 20
-10.822021929036516
 40
2
 41
1
 50
0
  1
型式
  0
TEXT
  8
_0-0_0
 62
    7
 10
43.203658536585365
 20
-15.339355167377121
 40
2
 41
1
 50
0
  1
図番
  0
ENDSEC
  0
EOF
